PrimaNota.ru - самый крупный в мире бесплатный архив песенных текстов, аккордов, табулатур и нот


Sister Hazel - Champagne High - аккорды и текст, таба, видео

Регистрация Запомнить меня
Войти через:  Facebook Google Twitter Vk Yandex Mail.ru

Sister Hazel - Champagne High - аккорды и текст, таба, видео

Печатать
Просмотров: 146
Champagne High
Sister Hazel
---------------------------------------------------------------------
                     Champagne High - Sister Hazel
---------------------------------------------------------------------

Tabbed by Clint Harris

Capo 5th fret

Intro:
(not too sure on this one.  I just finger pick the chords)

   Cadd9  G  Am   F
e|-3------3---0---1-------------------------------------------------|
B|-3------3---1---1-------------------------------------------------|
G|-0------0---2---2-------------------------------------------------|
D|-2------0---2---3-------------------------------------------------|
A|-3------2---0---3-------------------------------------------------|
E|-0------3---0---1-------------------------------------------------|

verse 1:
   Am   C   G
e|-0----0---3-------------------------------------------------------|
B|-1----1---3-------------------------------------------------------|
G|-2----0---0-------------------------------------------------------|
D|-2----2---0-------------------------------------------------------|
A|-0----3---2-------------------------------------------------------|
E|-0----0---3-------------------------------------------------------|


Am       C                           G
I wasn't looking for a lifetime with you
Am       C                            G
I never thought it would hurt just to hear,

"I do", and "I do",
Am                   C
And I do a number on myself
                G
And all that I thought -to be
Am
And you'll be the one
         C
Who just left me undone
      G
By my own, hesitation.

Pre Chorus:

   F   G   Am  D  Em
e|-1---3----0--2---0------------------------------------------------|
B|-1---3----1--3---0------------------------------------------------|
G|-2---0----2--2---0------------------------------------------------|
D|-3---0----2--0---2------------------------------------------------|
A|-3---2----0------2------------------------------------------------|
E|-1---3-----------0------------------------------------------------|


    F               G             Am
And for the million hours that we were
          F                     G
Well I'll smile and remember it all,
          Am   G   D
Then I'll turn and go.
           F                 G
While your story's completed Mine is a long
        Em
Way from done.

CHORUS

         C   G     Am  F
I'm on a champagne high
C            G         Am             F
Where will I be when I stop wondering why?
     C   G     Am  F C
On a champagne high -high


Verse 2:

Am               C                
Spring turned to summer, but then winter
          G
Turned to mean
Am                  C
The distance seemed right at the time it was
G
Best- to leave
             Am
And to leave behind
                        C           G
What I once thought was fine and so real- to me
Am
And while I'm still gone
       C
On the quest for my song
       G
I'm at your, Celebration

Prechorus:

    F               G             Am
And for the million hours that we were
          F                     G
Well I'll smile and remember it all,
          Am   G   D
Then I'll turn and go.
           F                 G
While your story's completed Mine is a long
        Em
Way from done.

Chorus:

         C   G     Am  F
I'm on a champagne high
C            G         Am             F
Where will I be when I stop wondering why?
     C   G     Am  F C
On a champagne high -high

BRIDGE

Am               C
Your wagons been hitched to a star.
Am                     C
Well now He'll be your thing that's new.
Am                 C
Yeah what little I have you can borrow.
F                         G
'Cause I'm old, (I'm old) I'm blue.  

Hold 'blue' into chorus chords, throw in an 'oh yeah' and 
then do the chorus and I believe you're done.

=====================================================================

Добавлено: 16.03.2012
Другие материалы по этой песне:

Страница создана 01.03.2012
http://primanota.ru/sister-hazel/champagne-high-chords.htm
Привет, Гость.
Предлагаем пройти революционный курс по гитаре.
Подарок от PrimaNota.Ru, забирай!