PrimaNota.ru - самый крупный в мире бесплатный архив песенных текстов, аккордов, табулатур и нот


Siri Nilsen - Stille Vann - таба, видео

Регистрация Запомнить меня
Войти через:  Facebook Google Twitter Vk Yandex Mail.ru

Siri Nilsen - Stille Vann - таба, видео

Печатать
Просмотров: 134
Уроки эстрадного вокала в Санкт-Петербурге
-------------------------------------------------------------------------------
                             Stille Vann - Siri Nilsen
-------------------------------------------------------------------------------
Tabbed by: Benjamin Jørgensen

This is Siri Nilsen's original version of "Stille Vann".
If you scroll down, I've tabbed Yvonne Nordvik Sivertsen's cover version aswell!

Tuning: EADGBE


Capo 2nd fret.

   Em
e|-------0-----------0-----------0-----------0------------------------------|
B|-----8---8-------8---8-------8---8-------8---8----------------------------|
G|---9-------9---9-------9---9-------9---9-------9--------------------------|
D|-9-----------9-----------9-----------9------------------------------------| x2 
A|--------------------------------------------------------------------------|
E|--------------------------------------------------------------------------|

  Bm
e|-------0-----------0-----------0-----------0-------------------------------|
B|-----3---3-------3---3-------3---3-------3---3-----------------------------|
G|---4-------4---4-------4---4-------4---4-------4---------------------------|
D|-4-----------4-----------4-----------4-------------------------------------|
A|---------------------------------------------------------------------------|
E|---------------------------------------------------------------------------|

   Em
e|-------0-----------0-----------0-----------0------------------------------|
B|-----8---8-------8---8-------8---8-------8---8----------------------------|
G|---9-------9---9-------9---9-------9---9-------9--------------------------|
D|-9-----------9-----------9-----------9------------------------------------|  
A|--------------------------------------------------------------------------|
E|--------------------------------------------------------------------------|

  Bm
e|-------0-----------0-----------0-----------0-------------------------------|
B|-----3---3-------3---3-------3---3-------3---3-----------------------------|
G|---4-------4---4-------4---4-------4---4-------4---------------------------|
D|-4-----------4-----------4-----------4-------------------------------------|
A|---------------------------------------------------------------------------|
E|---------------------------------------------------------------------------|

  F#m                       G
e|-------0-----------0------------3------------------------------------------|
B|-----0---0-------0---0--------3---3----------------------------------------|
G|---0-------0---0-------0----4-------4--------------------------------------|
D|-4------------------------5-----------5------------------------------------|
A|-------------4-------------------------------------------------------------|
E|---------------------------------------------------------------------------|
                   
                        Repeat from the beginning

 Em
e|-------0-----------0-----------0-----------0------------------------------|
B|-----8---8-------8---8-------8---8-------8---8----------------------------|
G|---9-------9---9-------9---9-------9---9-------9--------------------------|
D|-9-----------9-----------9-----------9------------------------------------| x2 
A|--------------------------------------------------------------------------|
E|--------------------------------------------------------------------------|

  Bm
e|-------0-----------0-----------0-----------0-------------------------------|
B|-----3---3-------3---3-------3---3-------3---3-----------------------------|
G|---4-------4---4-------4---4-------4---4-------4---------------------------|
D|-4-----------4-----------4-----------4-------------------------------------|
A|---------------------------------------------------------------------------|
E|---------------------------------------------------------------------------|


 Em
e|-------0-----------0-----------0-----------0------------------------------|
B|-----8---8-------8---8-------8---8-------8---8----------------------------|
G|---9-------9---9-------9---9-------9---9-------9--------------------------|
D|-9-----------9-----------9-----------9------------------------------------| x2 
A|--------------------------------------------------------------------------|
E|--------------------------------------------------------------------------|

  Bm            
e|-------0-----------0-----------0-----------0-------------------------------|
B|-----3---3-------3---3-------3---3-------3---3-----------------------------|
G|---4-------4---4-------4---4-------4---4-------4---------------------------|
D|-4-----------4-----------4-----------4-------------------------------------|
A|---------------------------------------------------------------------------|
E|---------------------------------------------------------------------------|



 Em
e|-------0-----------0-----------0-----------0------------------------------|
B|-----8---8-------8---8-------8---8-------8---8----------------------------|
G|---9-------9---9-------9---9-------9---9-------9--------------------------|
D|-9-----------9-----------9-----------9------------------------------------| 
A|--------------------------------------------------------------------------|
E|--------------------------------------------------------------------------|

  Bm
e|-------0-----------0-----------0-----------0-------------------------------|
B|-----3---3-------3---3-------3---3-------3---3-----------------------------|
G|---4-------4---4-------4---4-------4---4-------4---------------------------|
D|-4-----------4-----------4-----------4-------------------------------------|
A|---------------------------------------------------------------------------|
E|---------------------------------------------------------------------------|


  E                          D
e|-------4-----------4-----------0-------------------------------------------|
B|-----5---5-------5---5-------3---3-----------------------------------------|
G|---4-------4---4-------4---0-------0---------------------------------------|
D|-0-----------0-------------------------------------------------------------|
A|-------------------------5-----------5-------------------------------------|
E|---------------------------------------------------------------------------|


  Bm
e|-------0-----------0-------------------------------------------------------|
B|---------3-----------3-----------------------------------------------------|
G|-----4-----4-----4-----4---------------------------------------------------| x3
D|---4-----------4-----------------------------------------------------------|
A|-0-----------0-------------------------------------------------------------|
E|---------------------------------------------------------------------------|

 Em
e|-------0-----------0-----------0-----------0------------------------------|
B|-----8---8-------8---8-------8---8-------8---8----------------------------|
G|---9-------9---9-------9---9-------9---9-------9--------------------------|
D|-9-----------9-----------9-----------9------------------------------------| 
A|--------------------------------------------------------------------------|
E|--------------------------------------------------------------------------|

  Bm
e|-------0-----------0-----------0-----------0-------------------------------|
B|-----3---3-------3---3-------3---3-------3---3-----------------------------|
G|---4-------4---4-------4---4-------4---4-------4---------------------------|
D|-4-----------4-----------4-----------4-------------------------------------|
A|---------------------------------------------------------------------------|
E|---------------------------------------------------------------------------|

 Em
e|-------0-----------0-----------0-----------0------------------------------|
B|-----8---8-------8---8-------8---8-------8---8----------------------------|
G|---9-------9---9-------9---9-------9---9-------9--------------------------|
D|-9-----------9-----------9-----------9------------------------------------| 
A|--------------------------------------------------------------------------|
E|--------------------------------------------------------------------------|

  Bm
e|-------0-----------0-----------0-----------0-------------------------------|
B|-----3---3-------3---3-------3---3-------3---3-----------------------------|
G|---4-------4---4-------4---4-------4---4-------4---------------------------|
D|-4-----------4-----------4-----------4-------------------------------------|
A|---------------------------------------------------------------------------|
E|---------------------------------------------------------------------------|


  F#m                       G
e|-------0-----------0------------3------------------------------------------|
B|-----0---0-------0---0--------3---3----------------------------------------|
G|---0-------0---0-------0----4-------4--------------------------------------|
D|-4------------------------5-----------5------------------------------------|
A|-------------4-------------------------------------------------------------|
E|---------------------------------------------------------------------------|


 Em
e|-------0-----------0-----------0-----------0------------------------------|
B|-----8---8-------8---8-------8---8-------8---8----------------------------|
G|---9-------9---9-------9---9-------9---9-------9--------------------------|
D|-9-----------9-----------9-----------9------------------------------------| x5 
A|--------------------------------------------------------------------------|
E|--------------------------------------------------------------------------|




-------------------------------------------------------------------------------
                Stille Vann - Yvonne Nordvik Sivertsen
-------------------------------------------------------------------------------
       
  Capo 4th fret!

   F#m         
e|----------0---------------0---------------0---------------0----------------|
B|-------10------10------10------10------10------10------10------10----------|
G|----11------11------11------11------11------11------11------11-------------|
D|--0---------------0---------------0---------------0------------------------| x2
A|---------------------------------------------------------------------------|
E|---------------------------------------------------------------------------|

   C#m
e|-------0-----------0-----------0-----------0-------------------------------|
B|-----5-----5-----5-----5-----5-----5-----5-----5---------------------------|
G|---6-----6-----6-----6-----6-----6-----6-----6-----------------------------|
D|---------------------------------------------------------------------------|
A|-0-----------0-----------0-----------0-------------------------------------|
E|---------------------------------------------------------------------------|

   F#m         
e|----------0---------------0---------------0---------------0----------------|
B|-------10------10------10------10------10------10------10------10----------|
G|----11------11------11------11------11------11------11------11-------------| 
D|--0---------------0---------------0---------------0------------------------|
A|---------------------------------------------------------------------------|
E|---------------------------------------------------------------------------|

   C#m
e|-------0-----------0-----------0-----------0-------------------------------|
B|-----5-----5-----5-----5-----5-----5-----5-----5---------------------------|
G|---6-----6-----6-----6-----6-----6-----6-----6-----------------------------|
D|---------------------------------------------------------------------------|
A|-0-----------0-----------0-----------0-------------------------------------|
E|---------------------------------------------------------------------------|

   B                               A
e|---------------------------------------------------------------------------|
B|---------0-----------0--------------5--------------------------------------|
G|-------0-----0-----0-----0--------6-----6----------------------------------|
D|-----0-----0-----0-----0--------7-----7------------------------------------|
A|---------------------------------------------------------------------------|
E|--7------------7--------------5-----------5--------------------------------|

   F#m         
e|----------0---------------0---------------0---------------0----------------|
B|-------10------10------10------10------10------10------10------10----------|
G|----11------11------11------11------11------11------11------11-------------| 
D|--0---------------0---------------0---------------0------------------------| x2
A|---------------------------------------------------------------------------|
E|---------------------------------------------------------------------------|

   C#m
e|-------0-----------0-----------0-----------0-------------------------------|
B|-----5-----5-----5-----5-----5-----5-----5-----5---------------------------|
G|---6-----6-----6-----6-----6-----6-----6-----6-----------------------------|
D|---------------------------------------------------------------------------|
A|-0-----------0-----------0-----------0-------------------------------------|
E|---------------------------------------------------------------------------|

   F#m         
e|----------0---------------0---------------0---------------0----------------|
B|-------10------10------10------10------10------10------10------10----------|
G|----11------11------11------11------11------11------11------11-------------| 
D|--0---------------0---------------0---------------0------------------------| 
A|---------------------------------------------------------------------------|
E|---------------------------------------------------------------------------|

   F#m         "Å taaaa..................dine sko som du"
e|----------0---------------0------------------------------------------------|
B|-------10------10------10------10------------------------------------------|
G|----11------11------11------11---------------------------------------------| 
D|--0---------------0---------------0----------------------------------------| 
A|---------------------------------------------------------------------------|
E|---------------------------------------------------------------------------|


   C#m   "lar andre danse i......."
e|-------0-----------0-----------0-----------0-------------------------------|
B|-----5-----5-----5-----5-----5-----5-----5-----5---------------------------|
G|---6-----6-----6-----6-----6-----6-----6-----6-----------------------------|
D|---------------------------------------------------------------------------|
A|-0-----------0-----------0-----------0-------------------------------------|
E|---------------------------------------------------------------------------|

   F#m         
e|----------0---------------0---------------0---------------0----------------|
B|-------10------10------10------10------10------10------10------10----------|
G|----11------11------11------11------11------11------11------11-------------| 
D|--0---------------0---------------0---------------0------------------------| 
A|---------------------------------------------------------------------------|
E|---------------------------------------------------------------------------|

   C#m
e|-------0-----------0-----------0-----------0-------------------------------|
B|-----5-----5-----5-----5-----5-----5-----5-----5---------------------------|
G|---6-----6-----6-----6-----6-----6-----6-----6-----------------------------|
D|---------------------------------------------------------------------------|
A|-0-----------0-----------0-----------0-------------------------------------|
E|---------------------------------------------------------------------------|

   B                               A
e|---------------------------------------------------------------------------|
B|---------0-----------0--------------5--------------------------------------|
G|-------0-----0-----0-----0--------6-----6----------------------------------|
D|-----0-----0-----0-----0--------7-----7------------------------------------|
A|---------------------------------------------------------------------------|
E|--7------------7--------------5-----------5--------------------------------|

   F#m         
e|----------0---------------0---------------0---------------0----------------|
B|-------10------10------10------10------10------10------10------10----------|
G|----11------11------11------11------11------11------11------11-------------| 
D|--0---------------0---------------0---------------0------------------------|  x2
A|---------------------------------------------------------------------------|
E|---------------------------------------------------------------------------|

   C#m
e|-------0-----------0-----------0-----------0-------------------------------|
B|-----5-----5-----5-----5-----5-----5-----5-----5---------------------------|
G|---6-----6-----6-----6-----6-----6-----6-----6-----------------------------|
D|---------------------------------------------------------------------------|
A|-0-----------0-----------0-----------0-------------------------------------|
E|---------------------------------------------------------------------------|

   F#m         
e|----------0---------------0---------------0---------------0----------------|
B|-------10------10------10------10------10------10------10------10----------|
G|----11------11------11------11------11------11------11------11-------------| 
D|--0---------------0---------------0---------------0------------------------|  
A|---------------------------------------------------------------------------|
E|---------------------------------------------------------------------------|

   C#m
e|-------0-----------0-----------0-----------0-------------------------------|
B|-----5-----5-----5-----5-----5-----5-----5-----5---------------------------|
G|---6-----6-----6-----6-----6-----6-----6-----6-----------------------------|
D|---------------------------------------------------------------------------|
A|-0-----------0-----------0-----------0-------------------------------------|
E|---------------------------------------------------------------------------|

   B                               A
e|---------------------------------------------------------------------------|
B|---------0-----------0--------------5--------------------------------------|
G|-------0-----0-----0-----0--------6-----6----------------------------------|
D|-----0-----0-----0-----0--------7-----7------------------------------------|
A|---------------------------------------------------------------------------|
E|--7------------7--------------5-----------5--------------------------------|

   F#m         
e|----------0---------------0---------------0---------------0----------------|
B|-------10------10------10------10------10------10------10------10----------|
G|----11------11------11------11------11------11------11------11-------------| 
D|--0---------------0---------------0---------------0----------------0-------| 
A|---------------------------------------------------------------------------|
E|---------------------------------------------------------------------------|




Enjoy :) And remember the CAPO!
Добавлено: 29.11.2015
Другие материалы по этой песне:
  • Аккорды и текст

Страница создана 29.11.2015
http://primanota.ru/siri-nilsen/stille-vann-chords.htm
Привет, Гость.
Предлагаем пройти революционный курс по гитаре.
Подарок от PrimaNota.Ru, забирай!