PrimaNota.ru - самый крупный в мире бесплатный архив песенных текстов, аккордов, табулатур и нот


Sirens Sister - Theyre After Us - таба, видео

Регистрация Запомнить меня
Войти через:  Facebook Google Twitter Vk Yandex Mail.ru

Sirens Sister - Theyre After Us - таба, видео

Печатать
Просмотров: 88
---------------------------------------------------------------------------
THEY'RE AFTER US - Sirens Sister
---------------------------------------------------------------------------
Tabbed by: Shinsen88
Email: shinsen88@yahoo.com

Tuning: EADGBe 





GUITAR 1

INTRO (0:00-0:33)
e|---------------------------------------------------------------------------|
B|---------------------------------------------------------------------------|
G|--9------------------------------------------------------------------------|
D|--9----------6-6---------6-9-7-7-6-6-------6----------6-9-7-7-6-6----------|
A|--7--7-7-7-9-----7-7-7-9-------------9-9-0----7-7-7-9-------------9-9-0-7--|
E|---------------------------------------------------------------------------|

e|----------------------------------------------------------|
B|----------------------------------------------------------|
G|----------------------------------------------------------|
D|----------6-9-7-7-6-6-----0-6----------6-9-7-7-6-6-----0--|
A|--7-7-7-9-------------9-9------7-7-7-9-------------9-9----|
E|----------------------------------------------------------|

e|---------------------|
B|---------------------|
G|-----------------1~--|
D|------1-----1h2--2~--|
A|--0-0---0-0------2~--|
E|-----------------0~--|

VERSE (0:34-1:00)
e|-------------------------------------------------|
B|-------------------------------------------------|
G|--------------------------------1----------------|
D|--------1-------------------2-------4---2---1h2--|
A|----2-------4---2---1h2---0---0---0---0---0------| x2
E|--0---0---0---0---0------------------------------|

e|---------------------------------------------|
B|---------------------------------------------|
G|------------------------------1-------1------|
D|--------1-------1---------2-------4-------2--|
A|----2-------4-------2---0---0---0---0---0----| x2
E|--0---0---0---0---0--------------------------|

PRE-CHORUS (1:01-1:14)
e|------------0~-------------0~--0~--x~-----------------------------------|
B|------------0~-------------2~--0~--0~-----------------------------------|
G|------------1~-------------2~--0~--2~-----------------------------------|
D|----2-2-2---2~---2-2-2-2---2~--2~--2~--7-7-7-7-7-7-7-7-7-7-7-7-7-7-7-7--|
A|---0-0-0-0--2~---0-0-0-0---0~--2~--0~--7-7-7-7-7-7-7-7-5-5-5-5-5-5-5-5--|
E|------------0~-------------0~--0~--0~--5-5-5-5-5-5-5-5-5-5-5-5-5-5-5-5--|
                                         . . . . . . . .

CHORUS (1:15-1:43)
e|------------------------------------------|
B|------------------------------------------|
G|------------------------------------------|
D|--2-2--2-2--2-2--2-2--7-7--7-7--7-7--7-7--|
A|--2-2--2-2--2-2--2-2--7-7--7-7--7-7--7-7--|
E|--0-0--0-0--0-0--0-0--5-5--5-5--5-5--5-5--|

e|-----------------------------------------------------|
B|-----------------------------------------------------|
G|-----------------------------------------------------|
D|--2-2--2-2--2-2--2-2--7-7-7-7-7-7-7-7-7-7-7-7-7-7-7-7|
A|--2-2--2-2--2-2--2-2--7-7-7-7-7-7-7-7-7-7-7-7-7-7-7-7|
E|--0-0--0-0--0-0--0-0--5-5-5-5-5-5-5-5-5-5-5-5-5-5-5-5|
                        . . . . . . . .

e|------------------------------------------|
B|------------------------------------------|
G|------------------------------------------|
D|--2-2--2-2--2-2--2-2--7-7--7-7--7-7--7-7--|
A|--2-2--2-2--2-2--2-2--7-7--7-7--7-7--7-7--|
E|--0-0--0-0--0-0--0-0--5-5--5-5--5-5--5-5--|

e|-----------------------------------------------------|
B|-----------------------------------------------------|
G|-----------------------------------------------------|
D|--2-2--2-2--2-2--2-2--7-7-7-7-7-7-7-7-7-7-7-7-7-7-7-7|
A|--2-2--2-2--2-2--2-2--7-7-7-7-7-7-7-7-7-7-7-7-7-7-7-7|
E|--0-0--0-0--0-0--0-0--5-5-5-5-5-5-5-5-5-5-5-5-5-5-5-5|

POST-CHORUS (1:44-1:47)
e|---------------------|
B|---------------------|
G|-----------------1~--|
D|------1-----1h2--2~--|
A|--0-0---0-0------2~--|
E|-----------------0~--|

VERSE 2 (1:48-2:15)
e|--------------------------------|
B|----4-2------------9-7----------|
G|--4-----2-2h4-4--9-----9-8h9-9--|
D|--------------------------------|
A|--------------------------------| x2
E|--------------------------------|

PRE-CHORUS 2 (2:16-2:29)
e|------------------------0~-0~--x~------------------------------------|
B|------------------------2~-0~--0~------------------------------------|
G|--2-2-2-2--4~--2-2-2-2--2~-0~--2~------------------------------------|
D|------------------------2~-2~--2~---7-7-7-7-7-7-7-7-7-7-7-7-7-7-7-7--|
A|------------------------0~-2~--0~---7-7-7-7-7-7-7-7-7-7-7-7-7-7-7-7--|
E|------------------------0~-0~--0~---5-5-5-5-5-5-5-5-5-5-5-5-5-5-5-5--|
                                      . . . . . . . .

CHORUS (2:30-2:57)

SOLO (2:58-3:29)
e|-----------------------------------------------------------------------|
B|----/9p7-5-7~--5-5-5-4------9-9p7-5/12~--12br-/9-7-5-/7-7-7-7-7-5p4----|
G|--6--------------------4/6~-----------------------------------------6--|
D|-----------------------------------------------------------------------|
A|-----------------------------------------------------------------------|
E|-----------------------------------------------------------------------|

e|-------------------------------------------/9-7---------11br-7-9--|
B|--------------------7-9-10-9-7-9-7-9-10-12------10-9/11-----------|
G|--/8-9-8-6-4-6--8-9-----------------------------------------------|
D|------------------------------------------------------------------|
A|------------------------------------------------------------------|
E|------------------------------------------------------------------|

e|--16-14-12--14p12p11-12p11p9-11p9p7-9-11-11/14-9--|
B|--------------------------------------------------|
G|--------------------------------------------------|
D|--------------------------------------------------|
A|--------------------------------------------------|
E|--------------------------------------------------|

e|--9(x8)--11(x8)--12(x8)--14(x8)--|
B|---------------------------------|
G|---------------------------------|
D|---------------------------------|
A|---------------------------------|
E|---------------------------------|

BRIDGE (3:30-3:57)
e|-------------------------------------------------------------------|
B|-------------------------------------------------------------------|
G|-------------------------------------------------------------------|
D|-------------------------------------------------------------------|
A|-------------------------------------------------------------------| x3
E|--0-0-0-0-0-0-0-0-0-0-0-0-0-0-0-0-5-5-5-5-5-5-5-5-5-5-5-5-5-5-5-5--|
    . . . . . . . . . . . . . . . . . . . . . . . . . . . . . . . .

e|-------------------------------------------------------------------|
B|-------------------------------------------------------------------|
G|-------------------------------------------------------------------|
D|--2-2-2-2-2-2-2-2-2-2-2-2-2-2-2-2-7-7-7-7-7-7-7-7-7-7-7-7-7-7-7-7--|
A|--2-2-2-2-2-2-2-2-2-2-2-2-2-2-2-2-7-7-7-7-7-7-7-7-7-7-7-7-7-7-7-7--|
E|--0-0-0-0-0-0-0-0-0-0-0-0-0-0-0-0-5-5-5-5-5-5-5-5-5-5-5-5-5-5-5-5--|
    . . . . . . . 

CHORUS (3:58-4:25)

OUTRO (4:26-5:24)
e|------------------------------------------------------------|
B|------------------------------------------------------------|
G|------------------------------------------------------------|
D|----------6-9-7-7-6-6-----0-6----------6-9-7-7-6-6-----0----|
A|--7-7-7-9-------------9-9------7-7-7-9-------------9-9---7--| x4
E|------------------------------------------------------------|





GUITAR 2

INTRO (0:00-0:33)
           Then (x4)
e|--0~--|--0--0--x--|
B|--0~--|--0--2--0--|
G|--1~--|--1--2--2--|
D|--2~--|--2--2--2--|
A|--2~--|--2--0--0--| (listen to song for rhythm)
E|--0~--|--0--0--0--|

e|---------------------|
B|---------------------|
G|-----------------1~--|
D|------1-----1h2--2~--|
A|--0-0---0-0------2~--|
E|-----------------0~--|

VERSE (0:34-1:00)
e|--0~--0~--0~--0~--0-0-0~--0-0-0~--0-0-0~--0-0-0~---|
B|--0~--2~--0~--2~--0-0-0~--2-2-2~--0-0-0~--2-2-2~---|
G|--1~--2~--1~--2~--1-1-1~--2-2-2~--1-1-1~--2-2-2~---|
D|--2~--2~--2~--2~--2-2-2~--2-2-2~--2-2-2~--2-2-2~---|
A|--2~--0~--2~--0~--2-2-2~--0-0-0~--2-2-2~--0-0-0~---|
E|--0~--0~--0~--0~--0-0-0~--0-0-0~--0-0-0~--0-0-0~---|

PRE-CHORUS (1:01-1:14)
e|------------0~-------------0~--0~--x~-----------------------------------|
B|------------0~-------------2~--0~--0~-----------------------------------|
G|------------1~-------------2~--0~--2~-----------------------------------|
D|----2-2-2---2~---2-2-2-2---2~--2~--2~--7-7-7-7-7-7-7-7-7-7-7-7-7-7-7-7--|
A|---0-0-0-0--2~---0-0-0-0---0~--2~--0~--7-7-7-7-7-7-7-7-5-5-5-5-5-5-5-5--|
E|------------0~-------------0~--0~--0~--5-5-5-5-5-5-5-5-5-5-5-5-5-5-5-5--|
                                         . . . . . . . .

CHORUS (1:15-1:43)
e|------------------------------------------|
B|------------------------------------------|
G|------------------------------------------|
D|--2-2--2-2--2-2--2-2--7-7--7-7--7-7--7-7--|
A|--2-2--2-2--2-2--2-2--7-7--7-7--7-7--7-7--|
E|--0-0--0-0--0-0--0-0--5-5--5-5--5-5--5-5--|

e|-----------------------------------------------------|
B|-----------------------------------------------------|
G|-----------------------------------------------------|
D|--2-2--2-2--2-2--2-2--7-7-7-7-7-7-7-7-7-7-7-7-7-7-7-7|
A|--2-2--2-2--2-2--2-2--7-7-7-7-7-7-7-7-7-7-7-7-7-7-7-7|
E|--0-0--0-0--0-0--0-0--5-5-5-5-5-5-5-5-5-5-5-5-5-5-5-5|
                        . . . . . . . .

e|------------------------------------------|
B|------------------------------------------|
G|------------------------------------------|
D|--2-2--2-2--2-2--2-2--7-7--7-7--7-7--7-7--|
A|--2-2--2-2--2-2--2-2--7-7--7-7--7-7--7-7--|
E|--0-0--0-0--0-0--0-0--5-5--5-5--5-5--5-5--|

e|-----------------------------------------------------|
B|-----------------------------------------------------|
G|-----------------------------------------------------|
D|--2-2--2-2--2-2--2-2--7-7-7-7-7-7-7-7-7-7-7-7-7-7-7-7|
A|--2-2--2-2--2-2--2-2--7-7-7-7-7-7-7-7-7-7-7-7-7-7-7-7|
E|--0-0--0-0--0-0--0-0--5-5-5-5-5-5-5-5-5-5-5-5-5-5-5-5|

POST-CHORUS (1:44-1:47)
e|---------------------|
B|---------------------|
G|-----------------1~--|
D|------1-----1h2--2~--|
A|--0-0---0-0------2~--|
E|-----------------0~--|

VERSE (1:48-2:15)

PRE-CHORUS (2:16-2:29)

CHORUS (2:30-2:57)

RHYTHM DURING SOLO (2:58-3:29)
      x3               then
e|--0~--x~--|--0~------------------|
B|--2~--0~--|--2~------------------|
G|--2~--2~--|--2~------------------|
D|--2~--2~--|--2~--7-------7-------|
A|--0~--0~--|--0~--7(x16)--7(x16)--|
E|--0~--0~--|--0~--5-------5-------|
                   .

BRIDGE (3:30-3:57) 
e|-------------------------------------------------------------------|
B|-------------------------------------------------------------------|
G|-------------------------------------------------------------------|
D|-------------------------------------------------------------------|
A|-------------------------------------------------------------------| x3
E|--0-0-0-0-0-0-0-0-0-0-0-0-0-0-0-0-5-5-5-5-5-5-5-5-5-5-5-5-5-5-5-5--|
    . . . . . . . . . . . . . . . . . . . . . . . . . . . . . . . .

e|-------------------------------------------------------------------|
B|-------------------------------------------------------------------|
G|-------------------------------------------------------------------|
D|--2-2-2-2-2-2-2-2-2-2-2-2-2-2-2-2-7-7-7-7-7-7-7-7-7-7-7-7-7-7-7-7--|
A|--2-2-2-2-2-2-2-2-2-2-2-2-2-2-2-2-7-7-7-7-7-7-7-7-7-7-7-7-7-7-7-7--|
E|--0-0-0-0-0-0-0-0-0-0-0-0-0-0-0-0-5-5-5-5-5-5-5-5-5-5-5-5-5-5-5-5--|

CHORUS (3:58-4:25)

OUTRO (4:26-5:24)
e|------------------------------------------|
B|------------------------------------------|
G|------------------------------------------|
D|--2-2--2-2--2-2--2-2--7-7--7-7--7-7--7-7--|
A|--2-2--2-2--2-2--2-2--7-7--7-7--7-7--7-7--| x8
E|--0-0--0-0--0-0--0-0--5-5--5-5--5-5--5-5--|






GUITAR 3 (harmony in INTRO/OUTRO)
e|-------------------------------|
B|-------------------------------|
G|------------7-5-5--------------|
D|--6-6-6-7-9-------9-9-7-7-6-6--|
A|-------------------------------|
E|-------------------------------|





| .  palm mute
| “  tremolo pick
| *  pinch harmonic
| ~  let note ring
| /  slide up
| \  slide down
| h  hammer-on
| p  pull-off
| v  vibrato
| b  bend
| r  release
| +  natural harmonic
| x  mute note
====================================================================
Добавлено: 19.05.2012
Другие материалы по этой песне:
  • Аккорды и текст

Страница создана 19.05.2012
http://primanota.ru/sirens-sister/theyre-after-us-chords.htm
Привет, Гость.
Предлагаем пройти революционный курс по гитаре.
Подарок от PrimaNota.Ru, забирай!