PrimaNota.ru - самый крупный в мире бесплатный архив песенных текстов, аккордов, табулатур и нот


Siouxsie And The Banshees - The Killing Jar - текст песни, таба, видео

Регистрация Запомнить меня
Войти через:  Facebook Google Twitter Vk Yandex Mail.ru

Siouxsie And The Banshees - The Killing Jar - текст песни, таба, видео

Печатать
Просмотров: 145
Авторы текста: Steven Severin
Title: "The Killing Jar"
Artist: Siouxsie & The Banshees
Album: Peepshow
Tabbed By: Kasey McKee
Date: November 21, 2002


Intro (0:00):
e:15/------------------
B:---------------------
G:---------------------
D:---------------------
A:---------------------
E:---------------------


Little intro solo thing(0:14):
e:-----------------------------------6------
B:-6-5-5-5-5-5-3-6-5---5-6-6-6-6-6-6---6----
G:------------------------------------------
D:------------------------------------------
A:------------------------------------------
E:------------------------------------------


Verse:
down where this ugly man
  C
seeks his sustenance
  F
down in the blue, midnight flare
  C
a glass hand cuts through the water
  F
scything into his twisted roots
          C.............


You get the picture.


Fill(1:14)
e:-13-13-13-13-13


Chorus(1:16):
e:----------------------------------
B:----------------------------------
G:-5------------5-------------------
D:-5------------5------5--7--8--7--3
A:-3-(feedback)-3------5--7--8--7--3
E:---------------------3--5--6--5--1
                    "...hand around the killing jar..."

Post-chorus background(1:29):
e:--------------------------------
B:--------------------------------
G:-5-5-5-5-5-5-5-5----------------
D:-5-5-5-5-5-5-5-5-3-3-3-3-3-3----
A:-3-3-3-3-3-3-3-3-3-3-3-3-3-3----
E:-----------------1-1-1-1-1-1----
(palm-muted...................)


Post chorus solo(1:30)(whammy pedal?):
e:-12----12----12----12----13----13----13----13---
B:----13----13----13----13----13----13----13---13-


Fill(1:58):
G:-5--5---3--3------
D:-5--5---3--3------
A:------------------
E:------------------

Background thing(2:30):
e:-x-x-x-x-13-13-13
(This uses some weird muting and plucking)

Fill 2 (3:22):
e:-13-13-13-13-13
B:-13-13-13-13-13

I tried to make this as accurate as I possibly could. The only part I
think I missed is the solo at the end, which is too hard for me. I've
really been wanting to see more Banshees tabs, but I guess if you want
something done right, do it yourself.
     
Добавлено: 14.07.2013
Другие материалы по этой песне:
  • Аккорды и текст

Страница создана 15.06.2012
http://primanota.ru/siouxsie-and-the-banshees/the-killing-jar-chords.htm
Привет, Гость.
Предлагаем пройти революционный курс по гитаре.
Подарок от PrimaNota.Ru, забирай!