PrimaNota.ru - самый крупный в мире бесплатный архив песенных текстов, аккордов, табулатур и нот


Siouxsie And The Banshees - Lands End - текст песни, таба, видео

Регистрация Запомнить меня
Войти через:  Facebook Google Twitter Vk Yandex Mail.ru

Siouxsie And The Banshees - Lands End - текст песни, таба, видео

Печатать
Просмотров: 90
Авторы: Siouxsie Sioux, Peter Clarke, Steven Severin

-------------------------------------------------------------------------------
                             LAND'S END - Siouxsie and the Banshees
-------------------------------------------------------------------------------
Tabbed by: emilym80
E-mail: emilym80@hotmail.com

Tuning: standard

I've broken this tab into a few sections:


Verse/main riff: This looks a bit all over the place, so it probably isn't super
easy to follow, but it's how the riff goes.
e|---------------------------8----------------------------------0------------|
B|----------------------------12--------------------------------3------------|
G|------7-----7---7-------------0---------7----7---7------------0------------|
D|--------------0---------9----------------------0---------9----4------------|
A|----9---9-9--------0-12---------------9---9-9-------0-12------5------------|
E|-0---------------------------------0---------------------------------------|


Chorus: here are the chords. The way he arpeggiates changes slightly each time:
e|-----0---0-----------------------------------------------------------------|
B|-----5---5---------7---7--------9-----9------------------------------------|
G|---2---2---2-----5---5---5----7---7----------------------------------------|
D|-4-------------7------------9-------9--------------------------------------|
A|---------------------------------------------------------------------------|
E|---------------------------------------------------------------------------|

Bridge section 1:
e|----------------------------------------------------------------------------------|
B|----------------------------------------------------------------------------------|
G|-9--9--------9--9--------9--9--------9--9---------4-4-----4-4-----4-4-----4-4-----|
D|-10-10-------10-10-------10-10-------10-10--------5-5-----5-5-----5-5-----5-5-----|
A|-------12-12-------12-12-------12-12-------12-12------7-7-----7-7-----7-7----7-7--|
E|----------------------------------------------------------------------------------|

Bridge section 2a:
e|-0------0----0-------------0------0-----0----------------------------------|
B|-0------0----0-------------0------0-----0----------------------------------|
G|-9------5----0------0------9------5-----0------0---------------------------|
D|-10-----7----2--------2----10-----7-----2--------2-------------------------|
A|-12-----7----2----2--------12-----7-----2----2-----------------------------|
E|-------------0--0-----------------------0--0-------------------------------|

Bridge section 2b:
The very last note of this section (open E) leads into a repetition of the figure.
e|---------------------------------------------------------------------------|
B|---------------------------------------------------------------------------|
G|---------0---------------0-----------------0----------------0--------------|
D|-----3-----3---3-----3-----3-------1-0-1-3---3-1----1-0-1-3---3------------|
A|---3---3-----3-----3---3---------------------------------------------------|
E|-1---------------1-----------1-3-4----------------4-------------0----------|

Bridge section 3: variations on:
e|---------------------------------------------------------------------------|
B|---------------------------------------------------------------------------|
G|-7-7--5-5--7-7--5-5--10-9--10-9--------------------------------------------|
D|-7-7--7-7--7-7--7-7--10-10-10-10-------------------------------------------|
A|---------------------------------------------------------------------------|
E|---------------------------------------------------------------------------|

The rest of the song just repeats these sections.


************************************

| /   slide up
| \   slide down
| h   hammer-on
| p   pull-off
| ~   vibrato
| +   harmonic
| x   Mute note
| b   Bend
| pb  Pre-bend
| br  Bend release
| pbr Pre-bend release
| brb Bend release bend

************************************
Добавлено: 11.05.2016
Другие материалы по этой песне:
  • Аккорды и текст

Страница создана 21.07.2012
http://primanota.ru/siouxsie-and-the-banshees/lands-end-chords.htm
Привет, Гость.
Предлагаем пройти революционный курс по гитаре.
Подарок от PrimaNota.Ru, забирай!