PrimaNota.ru - самый крупный в мире бесплатный архив песенных текстов, аккордов, табулатур и нот


Sing It Loud - Dont Save Me - таба, видео

Регистрация Запомнить меня
Войти через:  Facebook Google Twitter Vk Yandex Mail.ru

Sing It Loud - Dont Save Me - таба, видео

Печатать
Просмотров: 107
By: leonel lopez
My mail any question: cone.sk8@hotmail.com

hola denuevo! ^^'
bueno vamos a dejar en claro la afinacion para esta cancion seria igual que "no 
one can touch us" aqui esta el ejemplo!

hello again! ^^ '
good let's leave in skylight the refining for this serious song just as " not one 
can touch us " here is the example!



e|----------|
B|----------|
G|----------|                           <---- EYE WITH THIS!!!!
D|----------|
A|-----0~---|  <-- LA (A)    Ok? ok!
E|--7~------|  <-- LA (A)
     
-----------------------------------------------------------------------------

 Don't save me...
e|------------------------|
B|------------------------|
G|-3-3-33-33-3-3-33-3-33-3|
D|-3-3-33-33-3-3-33-3-33-3| X3
A|-1-1-11-11-1-1-xx-x-xx-x|  
E|--------11-1-1-33-3-33-3| 

            ...I know I can make it on my..
e|--------------------|
B|--------------------|
G|-3-3-33-33-3-3-3~---|
D|-3-3-33-33-3-3-3~---| 
A|-1-1-11-11-1-1-x~---|  
E|--------11-1-1-3~---|

..oooownn.
e|------------------------------|     |-----|
B|------------------------------|     |-----|
G|-33-3-3-33-3-3-33-3-3-33-3-3--|     |-3~--|
D|-xx-x-x-33-3-3-33-3-3-33-3-3--| X2  |-1~--|
A|-55-5-5-11-1-1-11-1-1-xx-x-x--|     |-1~--|
E|-55-5-5-11-1-1--------33-3-3--|     |-----|

Sometimes I like..
(SOLO BASS AND DRUM)


    ...loook,Can you tell me?...
e|---------------|
B|---------------|
G|--33--33---3~--|
D|--33--33---3~--| 
A|--11--11---1~--|  
E|---------------|
P.M ..  ..

Can we burn this down?.
e|------------------------|
B|------------------------|
G|-3-3-33-33-3-3-33-3-33-3|
D|-3-3-33-33-3-3-33-3-33-3| X2
A|-1-1-11-11-1-1-xx-x-xx-x|  
E|--------11-1-1-33-3-33-3| 


If I can ask a...
e|----------------------|
B|----------------------|
G|---7~---3~---3~---3~--|
D|---5----1~---3~---3~--| X3
A|---5~---1~---1~---x---|  
E|---5~---1~--------3~--|

e|----------------------|
B|----------------------|
G|---7~---3~---3~---3-3-|
D|---5----1~---3~---3-3-| 
A|---5~---1~---1~---x-x-|  
E|---5~---1~--------3-3-|


Don't save me...
e|---------------------------------|
B|---------------------------------|
G|-3-3-3-3-3-3-3-3-3-3-3-3-3-3-3-3-|
D|-3-3-3-3-3-3-3-3-3-3-3-3-3-3-3-3-| X3
A|-1-1-1-1-1-1-1-1-x-x-x-x-x-x-x-x-|  
E|---------1-1-1-1-3-3-3-3-3-3-3-3-|

e|---------------------|
B|---------------------|
G|-3-3-3-3-3-3-3-3-3~--|
D|-3-3-3-3-3-3-3-3-3~--| 
A|-1-1-1-1-1-1-1-1-x~--|  
E|---------1-1-1-1-3~--|


(Ohh, ohh) Make it on my own
e|----------------------------------|     
B|----------------------------------|     
G|-3-3-3-3-3-3-3-3-3-3-3-3-3-3-3-3--|     
D|-x-x-x-x-3-3-3-3-3-3-3-3-3-3-3-3--| X2  
A|-5-5-5-5-1-1-1-1-1-1-1-1-x-x-x-x--|     
E|-5-5-5-5-1-1-1-1---------3-3-3-3--|   

e|----------------------|
B|----------------------|
G|---3~---3~---3~---3~--|
D|---x----1~---3~---3~--| X3
A|---5~---1~---1~---x---|  
E|---5~---1~--------3~--|  

e|----------------------------|
B|----------------------------|
G|---3~---3~---3~--33-333-33--|
D|---x----3~---3~--33-333-33--| 
A|---5~---1~---1~--11-111-11--|  
E|---5~---1~------------------|
PM                    ...


Don't save me...
e|---------------------------------|
B|---------------------------------|
G|-3-3-3-3-3-3-3-3-3-3-3-3-3-3-3-3-|
D|-3-3-3-3-3-3-3-3-3-3-3-3-3-3-3-3-| X4
A|-1-1-1-1-1-1-1-1-x-x-x-x-x-x-x-x-|  
E|---------1-1-1-1-3-3-3-3-3-3-3-3-|

       (INTERMEDIO)
e|--------------------------|
B|--------------------------|
G|-88-8-888-8-777-7-777-77--|
D|-88-8-888-8-888-8-888-88--| 
A|-66-6-666-6-655-5-555-55--|  
E|--------------------------|

              ..Baby, I got to make it on my...
e|--------------------------|
B|--------------------------|
G|-88-8-888-8-777-7-777-77--|
D|-88-8-888-8-888-8-888-88--| 
A|-66-6-666-6-655-5-555-55--|  
E|--------------------------|

  ooooooownnn...
e|--------------------------|
B|--------------------------|
G|-33-3-333-3-333-3-77-7-7--|
D|-33-3-333-3-333-3-55-5-5--| 
A|-11-1-111-1-111-1-55-5-5--|  
E|-------------11-1-55-5-5--|

            ...Baby, I got to make it on my own..
e|-------------------------|
B|-------------------------|
G|-33-3-333-3-377-7-755-5--|
D|-33-3-333-3-355-5-533-3--| 
A|-11-1-111-1-155-5-533-3--|  
E|-------11-1-155-5-533-3--|

   Ooooownn..
e|------------------------------------------|
B|------------------------------------------|
G|-3-3-3-3-3-3-3-3-3-3-3-3-3-3-3-3-3-3-3-3--|
D|-3-3-3-3-3-3-3-3-3-3-x-x-x-x-x-3-3-3-3-3--|  X2
A|-1-1-1-1-1-1-1-1-1-1-5-5-5-5-5-x-x-x-x-x--|  
E|-----------1-1-1-1-1-5-5-5-5-5-3-3-3-3-3--|


Don't save me...
e|------|
B|------|
G|-3~---|
D|-3~---| 
A|-1~---|  
E|------| 

..lot to ask but don't save me...
e|-------------|-----------------------------------|
B|-------------|-----------------------------------|
G|-------------|--3-3-3-3-3-3-3-3-3-3-3-3-3-3-3-3--| X2
D|---------33--|--3-3-3-3-3-3-3-3-3-3-3-3-3-3-3-3--| 
A|---------11--|--1-1-1-1-1-1-1-1-x-x-x-x-x-x-x-x--|  
E|-------------|----------1-1-1-1-3-3-3-3-3-3-3-3--|
PM         ..

 Don't save me... (ooooooh)
e|------------------------|
B|------------------------|
G|-3-3-33-33-3-3-33-3-33-3|
D|-3-3-33-33-3-3-33-3-33-3| X2
A|-1-1-11-11-1-1-xx-x-xx-x|  
E|--------11-1-1-33-3-33-3| 

   ..own.   (END)
e|--º-----------|
B|--º-----------|
G|--º--3--------|
D|--º--3--------|
A|--º--1--------|  
E|--º-----------|  
     
º = Silencio (Silence)

 
Добавлено: 16.07.2012
Другие материалы по этой песне:
  • Аккорды и текст

Страница создана 16.07.2012
http://primanota.ru/sing-it-loud/dont-save-me-chords.htm
Привет, Гость.
Предлагаем пройти революционный курс по гитаре.
Подарок от PrimaNota.Ru, забирай!