PrimaNota.ru - самый крупный в мире бесплатный архив песенных текстов, аккордов, табулатур и нот


Sinergia - Sindrome Camboya - таба, видео

Регистрация Запомнить меня
Войти через:  Facebook Google Twitter Vk Yandex Mail.ru

Sinergia - Sindrome Camboya - таба, видео

Печатать
Просмотров: 84
/ Slide up
\ Slide down
PM Palm Mute


Parte el Bajo solo, luego sigue la guitarra junto a la bateria

Intro:
 |--------------------PM-----------------------|
E!---------------------------------------------|
B|---------------------------------------------|
G|---------------------------------------------|
D|---------------------------------------------| x2
A|2-2-5-5-2-2-5-5-2-2-5-5-2-2-5-5--------------|
E|0-0-3-3-0-0-3-3-0-0-3-3-0-0-3-3--------------|

Riff 2
E!-------------------------------------------|
B|--9----9----9------------------------------|Tantos slide
G|-9-9--9-9--9-9/15\12/20\12/20\12\20--------|como sea
D|-------------------------------------------|necesario
A|-------------------------------------------|
E|-------------------------------------------|
*en los mi (9) dejen sonar las dos cuerdas juntas
E!-------------------------|
B|-------------------------|
G|-20\5-5/9\5-5/9\5-5/9\2—-|cuando bajen al la (2) aganlo
D|-------------------------|lentamente
A|-------------------------|
E|-------------------------|

 Riff 3:
                       |---------------PM----------------|
E!-------------------------------------------------------|
B|-------------------------------------------------------|
G|-------------------------------------------------------| x4
D|--5-5-5-5---5-5-5-5------------------------------------|
A|--3-3-3-3---3-3-3-3---2-2-5-5-2-2-5-5-2-2-5-5-2-2-5-5--|
E|----------------------0-0-3-3-0-0-3-3-0-0-3-3-0-0-3-3--|

 Coro:
E!------------------------------------------------------|
B|------------------------------------------------------|
G|------------------------------------------------------|
D|-5----------------------------------------------------|
A|-3----5-5-6-6----2-2-5-5-2-2-5-5-2-2-5-5-2-2-5-5------|
E|------3-3-4-4----0-0-3-3-0-0-3-3-0-0-3-3-0-0-3-3------|

Solo:
E|-12-0-0-10-0-0-8-0-0-7-|
B|-----------------------|
G|-----------------------|
D|-----------------------|
A|-----------------------|
E|-----------------------|
  Eso las primeras dos veces, luego en la tercera:

E|-12-0-0-10-0-0-8-0-0-7-0-0-5\3/9\7-|
B|-----------------------------------|
G|-----------------------------------|
D|-----------------------------------|
A|-----------------------------------|
E|-----------------------------------|

Esto dos veces, la segunda vez q lo agan cuando esten terminando se kedan pegados en el 
(3) y lo bajan lentamente con la guitarra

Bridge:
E|-----------------------|
B|-----------------------|
G|-----------------------|
D|-----------------------|
A|-5-5-5----5-5----------|
E|-3-3-3----3-3----------|

Orden:

Intro  x1
Riff 2 x1
Riff 3 x4
Coro   x2
Riff 2 x1
Riff 3 x4
Coro   x2
Solo   x2
Bridge x2
Coro   x2


Esa es la kncion, no puee ser mas facil asi que relajao sakandola =)
Es mi primera kncion y según io suena filete =S

Cualker duda o wea me agregan a lavozdelos80@hotmail
cya
Добавлено: 05.05.2012
Другие материалы по этой песне:

Страница создана 15.04.2012
http://primanota.ru/sinergia/sindrome-camboya-chords.htm
Привет, Гость.
Предлагаем пройти революционный курс по гитаре.
Подарок от PrimaNota.Ru, забирай!