PrimaNota.ru - самый крупный в мире бесплатный архив песенных текстов, аккордов, табулатур и нот


Sinergia - Jefe - таба, видео

Регистрация Запомнить меня
Войти через:  Facebook Google Twitter Vk Yandex Mail.ru

Sinergia - Jefe - таба, видео

Печатать
Просмотров: 83
Pa los cabros chilenos una banda muy buena de funk rock
 Buen aqui va la intro que la toca la guitarra y el bajo como con slap.
La cancion esta en G. (Key: G)

Pm = Palm Muting


Intro

La guitarra limpia con afinación estandar(E A D G B e)
(Guitar, clean distortion)

|---|---------------------------------------------|
|---|---------------------------------------------|
|---|---------------------------------------------|
|---|---------------------------------------------|
|---|---2-2--------2-2--------2-----2-2-----2-2-5--|
|-3-|-3-----3----3-----3----3---3-------3-3-------3|

y el bajo toca lo mismo (Bass plays the same)(E A D G)


Y después el continua con un fraseo casi igual. (Then play:)
Después de : (... otra vez!) 0:22

|-----------------------------------------------------------|
|-----------------------------------------------------------|
|-----------------------------------------------------------|
|-----------------------------------------------------------|
|------2-2-2----------2-2-2----------2-2-----2-2-----3-3-5--|
|--3-3-------3--3-3-3-------3--3-3-3-----3-3-----3-3-------3|

y el bajo toca lo mismo (Same at the Bass)

Bueno asi es mas o menos, si hubiera algun error seria facil de corregir escuchando la cancion. 


Verse  0:41

El bajo toca casi lo mismo durante el verso.

Guitarra tocando acordes (Chords)

|--12----12----12----12----12----12-----10----10--|            
|--14----14----14----14----14----14-----10----10--|         
|--14----14----14----14----14----14-----11----11--|      X3
|--14----14----14----14----14----14-----12----12--|         
|--12----12----12----12----12----12-----12----12--|          
|---------------------------------------10----10--|            


|--12----12----12----12----12----12--------------|
|--14----14----14----14----14----14--------------|
|--14----14----14----14----14----14----2--2--2--2|
|--14----14----14----14----14----14----0--0--0--0|
|--12----12----12----12----12----12--------------|
|------------------------------------------------|

Pre-Coro  1:02

Guitarra con distortion (Distorted Guitar)

|----------------------------------------|
|----------------------------------------|
|----------------------------------------|
|----------------------------------------|        X7
|-3-3--6-6--8-8--6-6--8-8-------4--8--6--|
|-1-1--4-4--6-6--4-4--6-6-------4--6--4--|
 |--------------PM---------------------|

|----------------------------------------|
|----------------------------------------|
|----------------------------------------|
|----------------------------------------|        
|-3-3--6-6--8-8--6-6--------8-8----6-----|
|-1-1--4-4--6-6--4-4--------6-6----4-----|
 |---------PM-------|


Chorus 1:23

|--------------------|
|--------------------|
|--------------------|
|---------------7----|       X3 
|-2-2-2-2-2-2---5----|
|-0-0-0-0-0-0--------|
 |----PM-----|

|-----------------|
|-----------------|
|-----------------|
|-----4-------3---|
|---3-------2-----|
|-2-------1-------|

Y la 4ta y ultima vez 
|--------------------|
|--------------------|
|--------------------|
|---------------7----|        
|-2-2-2-2-2-2---5----|  
|-0-0-0-0-0-0--------|
 |----PM-----|

|----------------------------|
|----------------------------|
|----------------------------|
|-------4-------------3------|
|----3-----3-------2-----2---|
|-2-------------1-----------1|

Despues

Intro
Coro
Coda (Intro)


Ahí está debería sonarles bien, sino pueden arreglarla escuchando la canción
Добавлено: 07.04.2012
Другие материалы по этой песне:

Страница создана 07.04.2012
http://primanota.ru/sinergia/jefe-chords.htm
Привет, Гость.
Предлагаем пройти революционный курс по гитаре.
Подарок от PrimaNota.Ru, забирай!