PrimaNota.ru - самый крупный в мире бесплатный архив песенных текстов, аккордов, табулатур и нот


Sinead Oconnor - Just Like You Said It Would Be - аккорды и текст, видео

Регистрация Запомнить меня
Войти через:  Facebook Google Twitter Vk Yandex Mail.ru

Sinead Oconnor - Just Like You Said It Would Be - аккорды и текст, видео

Печатать
Просмотров: 83
Уроки эстрадного вокала в Санкт-Петербурге
Just Like You Said It Would Be
Sinead Oconnor
_Just Like You Said It Would Be_
Sinead O'Connor
from _The Lion and the Cobra_
Re-Submitted by Adam Fletcher (adamf@csh.rit.edu)
Originally submitted by Riaan Booysen

Just Like U Said it would B  by  Sinead O'Connor
------------------------------------------------

Am C G G *4


  C	G     Am              {fingerpick the chords C, G & Am at every *}
|-------------------------|   {Strum all normally noted chords}
|-------------------1-----|
|-----0-----0-----2---2---|
|---2-----0-----2-------2-|
|-3-----------0-----------|
|-------3-----------------|

*
I will walk...
*
*
*Am C Am Am C Am

*
And there's talk...
*
*
*
* Am C Am

F E F F

C      	G Am Am
It's just...
C G Am Am
C G Am Am
C G Am Am E E

              *
I can see too many...
*
*
*
*
*Am C Am

F E F F

C G Am Am *4 E E

|----------------------------------------------|{I know it's bass but it
|----------------------------------------------| sounds nice like this}
|----------------------------------------------|
|----------------------------------------------|
|----------------------------------------------|
|-8---3---5-3-3-3/5---8---3---5------8---3---5-|

When I've walked...

{The next part is picked as well as strummed, so take your pick}

C  	G  Am Am
Will you be...
C G Am Am
C G Am Am
C G Am Am
C G E E
C G E E
C G Am Am
C G E E E E
C G E E
C G E E
C G Am Am
C G E E F F F F
     
Добавлено: 14.06.2013
Другие материалы по этой песне:
  • Аккорды и текст

Страница создана 14.06.2013
http://primanota.ru/sinead-oconnor/just-like-you-said-it-would-be-chords.htm
Привет, Гость.
Предлагаем пройти революционный курс по гитаре.
Подарок от PrimaNota.Ru, забирай!