PrimaNota.ru - самый крупный в мире бесплатный архив песенных текстов, аккордов, табулатур и нот


Sinaloa - Seek Harbor - таба, видео

Регистрация Запомнить меня
Войти через:  Facebook Google Twitter Vk Yandex Mail.ru

Sinaloa - Seek Harbor - таба, видео

Печатать
Просмотров: 96
Band: Sinaloa
Song: Seek Harbor
label type: Indie
Tabbed by: Ruben Meijerink

This sounds the best when you pluck this with your fingers

|------------------------------------------------------------------|
|------------------------------------------------------------------|
|---17--17--17--17--14--14--14--14--14--14--14--14-----------------|
|---19--19--19--19--15--15--15--15--14--14--14--14--10--10--10--10-|
|---------------------------------------------------12--12--12--12-|
|------------------------------------------------------------------|

Fill (gtr.2):

|------------------|
|---------11-10-10-|
|--10-10-(10)------|
|------------------|
|------------------|
|------------------|



http://www.myspace.com/sinaloa
Добавлено: 12.03.2012
Другие материалы по этой песне:
  • Аккорды и текст

Страница создана 12.03.2012
http://primanota.ru/sinaloa/seek-harbor-chords.htm
Привет, Гость.
Предлагаем пройти революционный курс по гитаре.
Подарок от PrimaNota.Ru, забирай!