PrimaNota.ru - самый крупный в мире бесплатный архив песенных текстов, аккордов, табулатур и нот


Sin Cycle - Watch The World Die - таба, видео

Регистрация Запомнить меня
Войти через:  Facebook Google Twitter Vk Yandex Mail.ru

Sin Cycle - Watch The World Die - таба, видео

Печатать
Просмотров: 60
Song: Watch the World Die
Artist: Sin Cycle
Album: Follow the Bleeder
As tabbed by Joe Muggah

Tuned down 1/2 step

Riff
eb--------------------------------------------------------
Bb--------------------------------------------------------
Gb----------0-----------------0-----------------0---------
Db------2-------2---------2-------2---------0-------0-----
Ab--------------------------------------------------------
Eb--0-0---0---0---0---0-0---0---0---0---3-3---3---3---3---

(continued)
eb--------------------------------------------------------
Bb--------------------------------------------------------
Gb----------0-----------------2-----------------2---------
Db------0-------0---------3-------3---------3-------3-----
Ab--------------------------------------------------------
Eb--3-3---3---3---3---1-1---1---1---1---1-1---1---1---1---

(continued)
eb--------------------------------------------------------
Bb--------------------------------------------------------
Gb----------2-----------------2---------------------------
Db------3-------3---------3-------3-----------------------
Ab--------------------------------------------------------
Eb--1-1---1---1---1---1-1---1---1---1---------------------

Verse
eb--------------------------------------------------------
Bb--------------------------------------------------------
Gb--0-------0---0-------0---0-------0---0-------0---------
Db------2-----------2-----------0-----------0-------------
Ab----2-----------2-----------2-----------2---------------
Eb--0-----0-----0-----0-----3-----3-----3-----3-----------

(continued)
eb--------------------------------------------------------
Bb--------------------------------------------------------
Gb--2-------2---2-------2---2-------2---2-------2---------
Db------3-----------3-----------3-----------3-------------
Ab----3-----------3-----------3-----------3---------------
Eb--1-----1-----1-----1-----1-----1-----1-----1-----------

Chorus
eb--------------------------------------------------------
Bb--------------------------------------------------------
Gb--4-------4---4-------4---2-------2---2-------2---------
Db------5-----------5-----------3-----------3-------------
Ab----5-----------5-----------3-----------3---------------
Eb--3-----3-----3-----3-----1-----1-----1-----1-----------

(continued)                                     end on
eb-------------------------------------------------|------
Bb-------------------------------------------------|------
Gb--1-------1---1-------1---1-------1---1-------1--|--0---
Db------2-----------2-----------2-----------2------|------
Ab----2-----------2-----------2-----------2--------|------
Eb--0-----0-----0-----0-----0-----0-----0-----0----|------

Riff
Verse
Chorus
Riff
Verse
Chorus
Verse
     
Добавлено: 27.10.2013
Другие материалы по этой песне:
  • Аккорды и текст

Страница создана 18.10.2013
http://primanota.ru/sin-cycle/watch-the-world-die-chords.htm
Привет, Гость.
Предлагаем пройти революционный курс по гитаре.
Подарок от PrimaNota.Ru, забирай!