PrimaNota.ru - самый крупный в мире бесплатный архив песенных текстов, аккордов, табулатур и нот


Sin Cycle - Ulterior Motive - таба, видео

Регистрация Запомнить меня
Войти через:  Facebook Google Twitter Vk Yandex Mail.ru

Sin Cycle - Ulterior Motive - таба, видео

Печатать
Просмотров: 66
Song: Ulterior Motive
Artist: Sin Cycle
Album: Follow the Bleeder
As tabbed by Joe Muggah

Tuned down 1/2 step

Intro
eb-----x-------x-----x------------x------------x--0---------
Bb--0--x--2p0--x--3--x--3p2-0--0--x--3p2-0--0--x----0---0---
Gb-----x-------x-----x------------x------------x------------
Db-----x-------x-----x------------x------------x------------
Ab--2--x--2----x--0--x--0---0-----x------------x------0-----
Eb-----x-------x-----x---------3--x--3---3--0--x--0---------

Verse
eb----------------------------------------------------------
Bb----------------------------------------------------------
Gb--4--4--x-x--4/-14--14-14--x-x-14--x-x-14-\-11--11--x-x---
Db--x--x--x-x--x---x---x--x--x-x--x--x-x--x----x---x--x-x---
Ab--2--2--x-x--2/-12--12-12--x-x-12--x-x-12-\--9---9--x-x---
Eb----------------------------------------------------------

(continued)
eb----------------------------------------------------------
Bb----------------------------------------------------------
Gb--11-11---9^--9^-9^--4--4-4-------------------------------
Db---x--x---x---x--x---x--x-x-------------------------------
Ab---9--9---7^--7^-7^--2--2-2-------------------------------
Eb---------------------0--0-0-------------------------------

Solo
eb----------------------------------------------------------
Bb----------------------------------------------------------
Gb-------------------2--2-2---------------------------------
Db--4--4-4----4-5-4-----------4-5-4^--4--4-4--4-5-4--2--2-2-
Ab----------------------------------------------------------
Eb----------------------------------------------------------

(continued)
eb----------------------------------------------------------
Bb---------------------------------------------------7--7-7-
Gb--4-4-4--------------------2--2-2--4p2p0--2p0-------------
Db---------4--4-4----4-5-4----------------------h4----------
Ab----------------------------------------------------------
Eb----------------------------------------------------------

(continued)
eb----------------------------------------------------------
Bb--8p7p0--10p8p0--12p10p0--12p10p0--14p12p0--12p10p0-------
Gb----------------------------------------------------------
Db----------------------------------------------------------
Ab----------------------------------------------------------
Eb----------------------------------------------------------

(continued)
eb--------------9-10-12-14^--14--14--14p12p10--12p10p9---10-
Bb--12^--12-12----------------------------------------------
Gb----------------------------------------------------------
Db----------------------------------------------------------
Ab----------------------------------------------------------
Eb----------------------------------------------------------

(continued)
eb--10-10--10-12-10--9--10-12--10--9--9h10p9----------------
Bb---------------------------------------------12^--12-12---
Gb----------------------------------------------------------
Db----------------------------------------------------------
Ab----------------------------------------------------------
Eb----------------------------------------------------------

(continued)
eb--9-10-12-14^--14--14--14p12p10--12p10p9--15--15-15--14---
Bb----------------------------------------------------------
Gb----------------------------------------------------------
Db----------------------------------------------------------
Ab----------------------------------------------------------
Eb----------------------------------------------------------

(continued)
eb--12-14--17--17--17--19--19-19-19^--\---------------------
Bb-------------------------19-19-19^--\---------------------
Gb----------------------------------------------------------
Db----------------------------------------------------------
Ab----------------------------------------------------------
Eb----------------------------------------------------------

Outro
eb------------------------------------------------------------
Bb------------------------------------------------------------
Gb----------------------------------------------------4^------
Db-----------2-4-5--4^--4-4---2-4-5--4^--4-4---2-4-5----------
Ab--2--2-2----------------------------------------------------
Eb------------------------------------------------------------

(continued)
eb------------------------------------------------------------
Bb------------------------------------------------------------
Gb--2---------------------------------------------------------
Db----4-2--0h2------------------------------------------------
Ab--------------4p2p0-----------------------------------------
Eb------------------------------------------------------------

Intro
Verse
Intro
Verse
Verse, Solo
Verse
Verse, Outro

The x's in the intro are down by slapping the stings like in
the song 'more than words'.

     
Добавлено: 11.07.2013
Вам также может быть интересно:
Другие материалы по этой песне:
  • Аккорды и текст

Страница создана 11.07.2013
http://primanota.ru/sin-cycle/ulterior-motive-chords.htm
Привет, Гость.
Предлагаем пройти революционный курс по гитаре.
Подарок от PrimaNota.Ru, забирай!