PrimaNota.ru - самый крупный в мире бесплатный архив песенных текстов, аккордов, табулатур и нот


Sin Cycle - Trance - таба, видео

Регистрация Запомнить меня
Войти через:  Facebook Google Twitter Vk Yandex Mail.ru

Sin Cycle - Trance - таба, видео

Печатать
Просмотров: 90
Song: Trance
Artist: Sin Cycle
Album: Re-evolution
As tabbed by Joe Muggah

Tune E,A,D,G,B,e to B,Gb,B,Gb,Bb,eb

Verse
eb----------------------------------------------------------
Bb----------------------------------------------------------
Gb----------------------------------------------------------
B---0-2--0-5--0-2--0-5--0-2--0-5--0--8-8-8--7---------------
Gb--0-2--0-5--0-2--0-5--0-2--0-5--0--8-8-8--7---------------
B---0-2--0-5--0-2--0-5--0-2--0-5--0--8-8-8--7---------------

Pre-Chorus
eb----------------------------------------------------------
Bb----------------------------------------------------------
Gb----------------------------------------------------------
B---8-8-8--7--5-5-5--7--8-8-8--7--5-5-5--2--8-8-8--7--5-5-5-
Bb--8-8-8--7--5-5-5--7--8-8-8--7--5-5-5--2--8-8-8--7--5-5-5-
B---8-8-8--7--5-5-5--7--8-8-8--7--5-5-5--2--8-8-8--7--5-5-5-

(continued)
eb----------------------------------------------------------
Bb----------------------------------------------------------
Gb----------------------------------------------------------
B---7--8-8-8--7--5-5-5--2--0-2--0-2--0-2--0-2--0-2-2--0-2---
Gb--7--8-8-8--7--5-5-5--2--0-2--0-2--0-2--0-2--0-2-2--0-2---
B---7--8-8-8--7--5-5-5--2--0-2--0-2--0-2--0-2--0-2-2--0-2---

Chorus
eb----------------------------------------------------------
Bb----------------------------------------------------------
Gb----------------------------------------------------------
B---9-9-9--8--8--7-7-7--5--5--7-7-7--5--5--0-2--0-2---------
B---9-9-9--8--8--7-7-7--5--5--7-7-7--5--5--0-2--0-2---------
B---9-9-9--8--8--7-7-7--5--5--7-7-7--5--5--0-2--0-2---------

Post-Chorus
eb----------------------------------------------------------
Bb----------------------------------------------------------
Gb----------------------------------------------------------
B---0-2--0-2--0-2--0-2--0-2-2--0-2--------------------------
Gb--0-2--0-2--0-2--0-2--0-2-2--0-2--------------------------
B---0-2--0-2--0-2--0-2--0-2-2--0-2--------------------------

Solo
eb----------------------------------------------------------
Bb--10-10-10--9--9--8-8-8--6--6--8-8-8--6--6----------------
Gb--------------------------------------------5--7--5--7----
B-----------------------------------------------------------
Gb----------------------------------------------------------
B-----------------------------------------------------------

(continued)
eb--17-17-17--16--16--15-15-15--13--13--15-15-15--13--13----
Bb----------------------------------------------------------
Gb----------------------------------------------------------
B-----------------------------------------------------------
Gb----------------------------------------------------------
B-----------------------------------------------------------

(continued)
eb----------------------------------------------------------
Bb--13--15--13--15---13p11p10--13p11p10--13p11p10--13p11p10-
Gb----------------------------------------------------------
B-----------------------------------------------------------
Gb----------------------------------------------------------
B-----------------------------------------------------------

(continued)
eb--14p11p10--14p11p10--14p11p10--14p11p10--14^-------------
Bb------------------------------------------13^-------------
Gb----------------------------------------------------------
B-----------------------------------------------------------
Gb----------------------------------------------------------
B-----------------------------------------------------------


Verse
Pre-Chorus
Chorus
Post-Chorus
Verse
Pre-Chorus
Chorus
Chorus, Solo
Pre-Chorus
Chorus
Post-Chorus

     
Добавлено: 24.06.2013
Другие материалы по этой песне:
  • Аккорды и текст

Страница создана 24.06.2013
http://primanota.ru/sin-cycle/trance-chords.htm
Привет, Гость.
Предлагаем пройти революционный курс по гитаре.
Подарок от PrimaNota.Ru, забирай!