PrimaNota.ru - самый крупный в мире бесплатный архив песенных текстов, аккордов, табулатур и нот


Sin Cycle - Re-evolution - таба, видео

Регистрация Запомнить меня
Войти через:  Facebook Google Twitter Vk Yandex Mail.ru

Sin Cycle - Re-evolution - таба, видео

Печатать
Просмотров: 79
Song: Re-evolution
Artist: Sin Cycle
Album: Re-evolution
As tabbed by Joe Muggah

Tune E,A,D,G,B,e to B,Gb,B,Gb,Bb,eb

Riff 1
eb----------------------------------------------------------
Bb----------------------------------------------------------
Gb----------------------------------------------------------
B---0-0-0--1-1-1--2-2--3-3-3--4-4-4--5-5--------------------
Gb--0-0-0--1-1-1--2-2--3-3-3--4-4-4--5-5--------------------
B---0-0-0--1-1-1--2-2--3-3-3--4-4-4--5-5--------------------

Verse
eb----------------------------------------------------------
Bb----------------------------------------------------------
Gb----------------------------------------------------------
B---0--0-0--0-0-0--0--0-0------10-8-7--(all x 2 then:)------
Gb--0--0-0--0-0-0--0--0-0--7-8------0-----------------------
B---0--0-0--0-0-0--0--0-0-----------0-----------------------

(continued)                                     end on
eb----------------------------------------------|-----------
Bb----------------------------------------------|-----------
Gb----------------------------------------------|-----------
B---0--0-0--0-0-0--0--0-0----7-6---0--(all x 2)-|-0-0-0-0---
Gb--0--0-0--0-0-0--0--0-0--5-----7-0------------|-0-0-0-0---
B---0--0-0--0-0-0--0--0-0----------0------------|-0-0-0-0---

Pre-Chorus
eb----------------------------------------------------------
Bb----------------------------------------------------------
Gb----------------------------------------------------------
B--8--8-8--8-8-8--7--7-7--7-7-7--0--0-0--3-3--0--0-0--3-3-0-
Gb-8--8-8--8-8-8--7--7-7--7-7-7--0--0-0--3-3--0--0-0--3-3-0-
B--8--8-8--8-8-8--7--7-7--7-7-7--0--0-0--3-3--0--0-0--3-3-0-

Chorus
eb-----|----------------------------------------------------
Bb-----|----------------------------------------------------
Gb-----|----------------------------------------------------
B--12\-|-0--0-0--3p0--0--0-0--6-6--0--0-0--3p0--0--0-0--6-6-
Gb-12\-|-0--0-0--3p0--0--0-0--6-6--0--0-0--3p0--0--0-0--6-6-
B--12\-|-0--0-0--3p0--0--0-0--6-6--0--0-0--3p0--0--0-0--6-6-

Riff 2
eb-----|----------------------------------------------------
Bb-----|----------------------------------------------------
Gb-12\-|-0--0-0--3p0--0--0-0--6-6--0--0-0--3p0--0--0-0--6-6-
B--12\-|-0--0-0--3p0--0--0-0--6-6--0--0-0--3p0--0--0-0--6-6-
Gb-----|----------------------------------------------------
B------|----------------------------------------------------

Solo (played twice)
eb----------------------------------------------------------
Bb----------------------------------------------------------
Gb---5-0----0-3------5-3-5-3-0----5-0----0-3------5-3-5/7-5-
B--0------6-----3--3------------0------6-----3--3-----------
Gb----------------------------------------------------------
B-----------------------------------------------------------

Riff 3
eb----------------------------------------------------------
Bb----------------------------------------------------------
Gb--7--7--7-7-7-7--8-8--3--3--3-3-3--6-6--------------------
B---7--7--7-7-7-7--8-8--3--3--3-3-3--6-6--------------------
Gb----------------------------------------------------------
B-----------------------------------------------------------

Bridge                                   end on
eb-----------------------------------------|----------------
Bb-----------------------------------------|----------------
Gb-----------------------------------------|----------------
B---7--7--7-7-7-7--8-8--3-3--3-3-3-3--6-6--|--6--\----------
Gb--7--7--7-7-7-7--8-8--3-3--3-3-3-3--6-6--|--6--\----------
B---7--7--7-7-7-7--8-8--3-3--3-3-3-3--6-6--|--6--\----------


Riff 1
Verse
Pre-Chorus
Chorus
Riff 1
Verse
Pre-Chorus
Chorus
Riff 2
Solo
Riff 2
Riff 3
Bridge
Pre-Chorus
Chorus
Riff 1

     
Добавлено: 01.08.2013
Другие материалы по этой песне:
  • Аккорды и текст

Страница создана 01.08.2013
http://primanota.ru/sin-cycle/re-evolution-chords.htm
Привет, Гость.
Предлагаем пройти революционный курс по гитаре.
Подарок от PrimaNota.Ru, забирай!