PrimaNota.ru - самый крупный в мире бесплатный архив песенных текстов, аккордов, табулатур и нот


Sin Cycle - Prelude To Darkness - таба, видео

Регистрация Запомнить меня
Войти через:  Facebook Google Twitter Vk Yandex Mail.ru

Sin Cycle - Prelude To Darkness - таба, видео

Печатать
Просмотров: 81
Song: Prelude to Darkness
Artist: Sin Cycle
Album: Follow the Bleeder
As tabbed by Joe Muggah

Dropped D and tuned down 1/2 step


Intro A (Guitar 1)
eb--13v----12\10v----13/15v----17----15v----------------------
Bb------------------------------------------------------------
Gb------------------------------------------------------------
Db------------------------------------------------------------
Ab------------------------------------------------------------
Db------------------------------------------------------------

Intro B (Piano arranged for Guitar 2)
eb-1-------1-------0-------0-------3-------3-------5-------3-------
Bb-----3-------3-------1-------1-------3-------3-------5-------3---
Gb---2---2---2---2---0---0---0---0---3---3---3---3---5---5---3---3-
Db-----------------------------------------------------------------
Ab-----------------------------------------------------------------
Db-0---------------0---------------0---------------0-------0-------

Verse
eb-1-------1-------1-------1-------1-------1-------1-------1-------
Bb-----3-------3-------3-------3-------3-------3-------3-------3---
Gb---2---2---2---2---2---2---2---2---2---2---2---2---2---2---2---2-
Db-----------------------------------------------------------------
Ab-----------------------------------------------------------------
Db-0-------------------------------0-------------------------------

*Continue the above chord pattern with these chords in this order:
eb-3----1----3----5----6----10----13----15----15----13----12----10-
Bb-3----3----3----5----8----10----15----17----15----15----14----10-
Gb-3----2----3----5----7----10----14----16----15----13----12----10-
Db-----------------------------------------------------------------
Ab-----------------------------------------------------------------
Db-0----0----0----0----0-----0-----0-----0-----0-----0-----0-----0-

(continued)
eb--8----10----8----6----8----6----5----6----5----3----5----3----1-
Bb-10----10---10----8---10----8----5----8----5----3----5----3----3-
Gb--9----10----9----7----9----7----5----7----5----3----5----3----2-
Db-----------------------------------------------------------------
Ab-----------------------------------------------------------------
Db--0-----0----0----0----0----0----0----0----0----0----0----0----0-


Intro A, B
Verse

     
Добавлено: 25.11.2013
Другие материалы по этой песне:
  • Аккорды и текст

Страница создана 29.09.2013
http://primanota.ru/sin-cycle/prelude-to-darkness-chords.htm
Привет, Гость.
Предлагаем пройти революционный курс по гитаре.
Подарок от PrimaNota.Ru, забирай!