PrimaNota.ru - самый крупный в мире бесплатный архив песенных текстов, аккордов, табулатур и нот


Sin Cycle - Follow The Bleeder - таба, видео

Регистрация Запомнить меня
Войти через:  Facebook Google Twitter Vk Yandex Mail.ru

Sin Cycle - Follow The Bleeder - таба, видео

Печатать
Просмотров: 82
Song: Follow the Bleeder
Artist: Sin Cycle
Album: Follow the Bleeder
As tabbed by Joe Muggah

Tuned down 1/2 step

Verse
eb----2------2------2-----3------3------3-----3------3------3-
Bb------2------2------------3------3------------3------3------
Gb------------------------------------------------------------
Db------------------------------------------------------------
Ab------------------------------------------------------------
Eb--2------2------2-----3------3------3-----0------0------0---

(continued)
eb----3------3------3-----------------------------------------
Bb------3------3----------------------------------------------
Gb------------------------------------------------------------
Db------------------------------------------------------------
Ab------------------------------------------------------------
Eb--3------3------3-------------------------------------------

Chorus
eb----7------7------7-----8------8------8----10------10-------
Bb------7------7------------8------8------------10------10----
Gb------------------------------------------------------------
Db------------------------------------------------------------
Ab------------------------------------------------------------
Eb--7------7------7-----8------8------8----0-------0----------

(continued)
eb----10----9------9------9-----------------------------------
Bb------------9------9----------------------------------------
Gb------------------------------------------------------------
Db------------------------------------------------------------
Ab------------------------------------------------------------
Eb--0-----9------9------9-------------------------------------

Riff 1
eb------------------------------------------------------------
Bb------------------------------------------------------------
Gb------------------------------------------------------------
Db--4-4-x-x-4--4-4-4--5-5-x-x-5--5-5-5--2-2-x-x-2--2-2-2------
Ab--4-4-x-x-4--4-4-4--5-5-x-x-5--5-5-5--2-2-x-x-2--2-2-2------
Eb--2-2-x-x-2--2-2-2--3-3-x-x-3--3-3-3--0-0-x-x-0--0-0-0------

(continued)
eb------------------------------------------------------------
Bb------------------------------------------------------------
Gb------------------------------------------------------------
Db--5-5-x-x-5--5-5-5------------------------------------------
Ab--5-5-x-x-5--5-5-5------------------------------------------
Eb--3-3-x-x-3--5-5-5------------------------------------------

Solo 1
eb------------------------------------------------------------
Bb------------------------------------------------------------
Gb--6^--6-6^--6-6p4---------------4/7^--7-7^--7-7\4--4^--4-4^-
Db-------------------5^--5^--5p4------------------------------
Ab------------------------------------------------------------
Eb------------------------------------------------------------

(continued)
eb------------------------------------------------------------
Bb------------------------------------------------------------
Gb--4-4-2h4--6^--6-6^--6-6p4---------------4/7^--7-7^--7-7\4--
Db----------------------------5^--5^--5p4---------------------
Ab------------------------------------------------------------
Eb------------------------------------------------------------

(continued)
eb------------------------------------------------------------
Bb------------------------------------------------------------
Gb--4^--4-4^--4-4/7-7^--7v------------------------------------
Db------------------------------------------------------------
Ab------------------------------------------------------------
Eb------------------------------------------------------------

Riff 2
eb------------------------------------------------------------
Bb------------------------------------------------------------
Gb--4-4-x-x-4--4-4-4--5-5-x-x-5--5-5-5--9-9-x-x-9--9-9-9------
Db--4-4-x-x-4--4-4-4--5-5-x-x-5--5-5-5--9-9-x-x-9--9-9-9------
Ab--2-2-x-x-1--2-2-2--3-3-x-x-3--3-3-3--7-7-x-x-7--7-7-7------
Eb------------------------------------------------------------

(continued)
eb------------------------------------------------------------
Bb------------------------------------------------------------
Gb--6-6-x-x-6--6-6-6------------------------------------------
Db--6-6-x-x-6--6-6-6------------------------------------------
Ab--4-4-x-x-4--4-4-4------------------------------------------
Eb------------------------------------------------------------

Solo 2 (played twice)
eb--7h8p7-----------------10^----------9^----------8^---------
Bb---------8-----------8------------8-----------7-------------
Gb------------9---7-7----------6-6---------5-5----------------
Db------------------------------------------------------------
Ab------------------------------------------------------------
Eb------------------------------------------------------------


Verse
Chorus
Verse
Verse, Riff 1
Riff 1, Solo 1
Chorus, Riff 2
Riff 2, Solo 2
Verse, Riff 1

     
Добавлено: 28.08.2013
Другие материалы по этой песне:
  • Аккорды и текст

Страница создана 28.08.2013
http://primanota.ru/sin-cycle/follow-the-bleeder-chords.htm
Привет, Гость.
Предлагаем пройти революционный курс по гитаре.
Подарок от PrimaNota.Ru, забирай!