PrimaNota.ru - самый крупный в мире бесплатный архив песенных текстов, аккордов, табулатур и нот


Sin Cycle - Epitaph - таба, видео

Регистрация Запомнить меня
Войти через:  Facebook Google Twitter Vk Yandex Mail.ru

Sin Cycle - Epitaph - таба, видео

Печатать
Просмотров: 73
Song: Epitaph
Artist: Sin Cycle
Album: Re-evolution
As tabbed by Joe Muggah

Tuned from E,A,D,G,B,e to B,Gb,B,Gb,Bb,eb

Riff
eb--------------------------------------------------------
Bb--------------------------------------------------------
Gb--------------------------------------------------------
B----4----6----7----6----4-----4----6----7----6----7/9\7--
Gb-----4----4----4----4----4-----4----4----4----4---------
B---4----4----4----4----4-----4----4----4----4----4-------

(Continued)
eb--------------------------------------------------------
Bb--------------------------------------------------------
Gb--------------------------------------------------------
B----0----2----4----2----0-----0----2----4----2----0---2--
Gb-----0----0----0----0----0-----0----0----0----0----0----
B---0----0----0----0----0-----0----0----0----0----0-------

Verse
eb--0-0-0--0-0-0--3-3-3--3-3-3--0-0-0--0-0-0--3-3--0-0----
Bb--0-0-0--0-0-0--0-0-0--0-0-0--3-3-3--3-3-3--0-0--3-3----
Gb--0-0-0--0-0-0--0-0-0--0-0-0--0-0-0--0-0-0--0-0--0-0----
B---4-4-4--4-4-4--4-4-4--4-4-4--4-4-4--4-4-4--4-4--4-4--2-
Gb--4-4-4--4-4-4--4-4-4--4-4-4--4-4-4--4-4-4--4-4--4-4--2-
B---4-4-4--4-4-4--4-4-4--4-4-4--4-4-4--4-4-4--4-4--4-4--2-

(continued)
eb--0-0-0--0-0-0--3-3-3-3-3-3--0-0-0--0-0-0--3-3-3-3-3-3--
Bb--0-0-0--0-0-0--1-1-0-0-1-0--0-0-0--0-0-0--1-1-0-0-1-0--
Gb--0-0-0--0-0-0--0-0-0-0-0-0--0-0-0--0-0-0--0-0-0-0-0-0--
B---0-0-0--0-0-0--0-0-0-0-0-0--0-0-0--0-0-0--0-0-0-0-0-0--
Gb--0-0-0--0-0-0--0-0-0-0-0-0--0-0-0--0-0-0--0-0-0-0-0-0--
B---0-0-0--0-0-0--0-0-0-0-0-0--0-0-0--0-0-0--0-0-0-0-0-0--

Solo A (Guitar 1)
eb------0------0------0------0------0-0-------------------
Bb------7------7------5------3------3-3-------------------
Gb------0------0------0------0------0-0---(all x2 then:)--
B---4-4-4--4-4-4--4-4-4--4-4-4--4-4-4-4-------------------
Gb--------------------------------------------------------
B---------------------------------------------------------

(continued)
eb------0------0------0------0------0---------------------
Bb------7------7------5------3------1/3-------------------
Gb------0------0------0------0------0----(all x2)---------
B---0-0-0--0-0-0--0-0-0--0-0-0--0-0-0---------------------
Gb--------------------------------------------------------
B---------------------------------------------------------

Solo B (Guitar 2)
eb--------------------------------------------------------
Bb--7p5p0-7p5p0-5p3p0-5p3p0-3p1p0-3p1p0-3p1p0-3p1p0-------
Gb--------------------------------------------------------
B------------------------------------------(all x2 then:)-
Gb--------------------------------------------------------
B---------------------------------------------------------

(continued)
eb--------------------------------------------------------
Bb--------------------------------------------------------
Gb--11p9p0-11p9p0-9p7p0-9p7p0-7p5p0-7p55p0-7p5p0-7p5p0----
B--------------------------------------------(all x 2)----
Gb--------------------------------------------------------
B---------------------------------------------------------

Bridge A (Guitar 1)
eb----2------2------2----2------2------2----2------2------
Bb------5------5-----------5------5-----------5------5----
Gb--4------4------4----4------4------4----5------5--------
Bb--------------------------------------------------------
Gb--------------------------------------------------------
B---------------------------------------------------------

(continued)
eb----2----3------3------3--------------------------------
Bb-----------5------5-------------------------------------
Gb--5----5------5------5----------------------------------
B---------------------------------------------------------
Gb--------------------------------------------------------
B---------------------------------------------------------

Bridge B (Guitar 2)
eb--------------------------------------------------------
Bb--------------------------------------------------------
Gb--------------------------------------------------------
B---------4-------4-------6-------7-------6-(all x2 then:)
Gb--------4-------4-------4-------4-------4---------------
B---4m-4m-4-4m-4m-4-4m-4m-4-4m-4m-4-4m-4m-4---------------

(continued)
eb--------------------------------------------------------
Bb--------------------------------------------------------
Gb--------------------------------------------------------
B---------4-------4-------6-------7-------6-(all x2)------
Gb--------5-------5-------5-------5-------5---------------
B---4m-4m-4-4m-4m-4-4m-4m-4-4m-4m-4-4m-4m-4---------------

Riff
Verse
Riff
Verse
Solo A
Solo A, B
Bridge A
Bridge A, B
Riff
     
Добавлено: 07.07.2013
Другие материалы по этой песне:
  • Аккорды и текст

Страница создана 07.07.2013
http://primanota.ru/sin-cycle/epitaph-chords.htm
Привет, Гость.
Предлагаем пройти революционный курс по гитаре.
Подарок от PrimaNota.Ru, забирай!