PrimaNota.ru - самый крупный в мире бесплатный архив песенных текстов, аккордов, табулатур и нот


Sin Cycle - Dead On Arrival - таба, видео

Регистрация Запомнить меня
Войти через:  Facebook Google Twitter Vk Yandex Mail.ru

Sin Cycle - Dead On Arrival - таба, видео

Печатать
Просмотров: 83
Song: Dead on Arrival
Artist: Sin Cycle
Album: Follow the Bleeder
As tabbed by Joe Muggah

Dropped D and tuned down 1/2 step

Verse
eb---------------------------------------------------------
Bb---------------------------------------------------------
Gb---------------------------------------------------------
Db--0-2-3-0--5-3-2-0--1-x-x-x-x--1-x-x-x-x--1--------------
Ab--0-2-3-0--5-3-2-0--1-x-x-x-x--1-x-x-x-x--1--------------
Db--0-2-3-0--5-3-2-0--1-x-x-x-x--1-x-x-x-x--1--------------

Chorus
eb---------------------------------------------------------
Bb---------------------------------------------------------
Gb---------------------------------------------------------
Db--3-x-x-x-x--3--x-x-x-x--3---5-6-5-0--3-5-3-0------------
Ab--3-x-x-x-x--3--x-x-x-x--3---5-6-5-0--3-5-3-0------------
Db--3-x-x-x-x--3--x-x-x-x--3---5-6-5-0--3-5-3-0------------

(continued)                                    end on
eb-----------------------------------------------|---------
Bb-----------------------------------------------|---------
Gb-----------------------------------------------|---------
Db--3-x-x-x-x--3--x-x-x-x--3---3-5-3-0--1-3-1-0--|--1---1--
Ab--3-x-x-x-x--3--x-x-x-x--3---3-5-3-0--1-3-1-0--|--1---1--
Db--3-x-x-x-x--3--x-x-x-x--3---3-5-3-0--1-3-1-0--|--1---1--

Pre-Bridge
eb---------------------------------------------------------
Bb---------------------------------------------------------
Gb---------------------------------------------------------
Db--1-----1---1----0-----3---3-----------------------------
Ab--1-----1---1----0-----3---3-----------------------------
Db--1-----1---1----0-----3---3-----------------------------


Bridge A (Guitar 1, each hit 2 times and palm muted)
eb---------------------------------------------------------
Bb---------------------------------------------------------
Gb---------------------------------------------------------
Db--1-1-1-1-1-1-1-1--0-0-0-0--3-3-3-3----------------------
Ab--1-1-1-1-1-1-1-1--0-0-0-0--3-3-3-3----------------------
Db--1-1-1-1-1-1-1-1--0-0-0-0--3-3-3-3----------------------

Bridge B (Guitar 2)
eb---------------------------------------------------------
Bb--11-11-11--13-13-13--11-11-11--13-13-13--11-11--13-13---
Gb---------------------------------------------------------
Db---------------------------------------------------------
Ab---------------------------------------------------------
Db---------------------------------------------------------

(continued)
eb---------------------------------------------------------
Bb--10-10-10--11-11-11--8-8-8--10-10-10--8-8--6^-----------
Gb---------------------------------------------------------
Db---------------------------------------------------------
Ab---------------------------------------------------------
Db---------------------------------------------------------

Solo (played twice)
eb---------------------------------------------------------
Bb---------------------------------------------------------
Gb----12-10-----12-10----10-------8-10^--10----------7-8^--
Db-10-------12--------12-----8-10------------10--7-8-------
Ab---------------------------------------------------------
Db---------------------------------------------------------

(continued)
eb---------------------------------------------------------
Bb---------------------------------------------------------
Gb--7---------7-8^--7--------12-10-----12-10----10---------
Db----8--7-8----------8---10-------12--------12------------
Ab---------------------------------------------------------
Db---------------------------------------------------------

(continued)
eb---------------------------------------------------------
Bb-------------------------------6----------------6--------
Gb--------8-10^--8-----------7-8---8-7-5------7-8---8-7-5--
Db--8-10-----------10---7-8---------------7-8--------------
Ab---------------------------------------------------------
Db---------------------------------------------------------


Verse
Chorus
Verse
Chorus
Pre-Bridge
Bridge A
Bridge A, B
Bridge A, Solo
Chorus
Verse

     
Добавлено: 04.08.2013
Другие материалы по этой песне:
  • Аккорды и текст

Страница создана 04.08.2013
http://primanota.ru/sin-cycle/dead-on-arrival-chords.htm
Привет, Гость.
Предлагаем пройти революционный курс по гитаре.
Подарок от PrimaNota.Ru, забирай!