PrimaNota.ru - самый крупный в мире бесплатный архив песенных текстов, аккордов, табулатур и нот


Sin Cycle - Caduceus - таба, видео

Регистрация Запомнить меня
Войти через:  Facebook Google Twitter Vk Yandex Mail.ru

Sin Cycle - Caduceus - таба, видео

Печатать
Просмотров: 66
Song: Caduceus
Artist: Sin Cycle
Album: Re-evolutionn
As tabbed by Joe Muggah

Tune E,A,D,G,B,e to B,Gb,B,Gb,Bb,eb

Intro
eb------------------------------------------------------------
Bb------------------------------------------------------------
Gb---------------------------------------------------------3^-
B--0-3-2-0-3-5-0-6-5-6-5-6-5-3^--0-3-2-0-3-5-0-6-5-6-5-6-5----
Gb------------------------------------------------------------
B-------------------------------------------------------------

Verse
eb------------------------------------------------------------
Bb------------------------------------------------------------
Gb------------------------------------------------------------
B--0-3-2-0-3-5-0-6-5-6-5-6-5-----0-3-2-0-3-5-0-6-5-6-5-6-5----
Gb-0-3-2-0-3-5-0-6-5-6-5-6-5-----0-3-2-0-3-5-0-6-5-6-5-6-5-3^-
B--0-3-2-0-3-5-0-6-5-6-5-6-5-3^--0-3-2-0-3-5-0-6-5-6-5-6-5----

(continued)
eb---------------------------------------------------------8^-
Bb------------------------------------------------------------
Gb------------------------------------------------------------
B--0-3-2-0-3-5-0-6-5-6-5-6-5-----0-3-2-0-3-5-0-6-5-6-5-6-5----
Gb-0-3-2-0-3-5-0-6-5-6-5-6-5-----0-3-2-0-3-5-0-6-5-6-5-6-5----
B--0-3-2-0-3-5-0-6-5-6-5-6-5-3^--0-3-2-0-3-5-0-6-5-6-5-6-5----

Pre-Chorus
eb------------------------------------------------------------
Bb------------------------------------------------------------
Gb------------------------------------------------------------
B--0-0--0--0--0-0--0--1-3-1--0-0--0--0--0-0--0--1-3-1-0-------
Gb-0-0--0--0--0-0--0--1-3-1--0-0--0--0--0-0--0--1-3-1-0-------
B--0-0--0--0--0-0--0--1-3-1--0-0--0--0--0-0--0--1-3-1-0-------

(continued)
eb------------------------------------------------------------
Bb------------------------------------------------------------
Gb------------------------------------------------------------
B--1-1--1--1--1-1--1--1--0--0-0--1-3-1--0--0-0--1-3-1-0-------
Gb-1-1--1--1--1-1--1--1--0--0-0--1-3-1--0--0-0--1-3-1-0-------
B--1-1--1--1--1-1--1--1--0--0-0--1-3-1--0--0-0--1-3-1-0-------

(continued)
eb------------------------------------------------------------
Bb------------------------------------------------------------
Gb------------------------------------------------------------
B--1-1--1--1--1-1--1--1---------------------------------------
Gb-1-1--1--1--1-1--1--1---------------------------------------
B--1-1--1--1--1-1--1--1---------------------------------------

Chorus
eb------------------------------------------------------------
Bb------------------------------------------------------------
Gb----5-7--8-10-----5-7--8-10-----5-7--8-10-----5-7--8-10-----
B--0--x-x--x--x--0--x-x--x--x--8--x-x--x--x--8--x-x--x--x-----
Gb-0--5-5--8-10--0--5-7--8-10--8--5-7--8-10--8--5-7--8-10-----
B--0-------------0-------------8-------------8----------------


Riff
Verse
Pre-Chorus
Chorus
Verse
Pre-Chorus
Chorus
Verse
     
Добавлено: 06.10.2013
Другие материалы по этой песне:
  • Аккорды и текст

Страница создана 06.10.2013
http://primanota.ru/sin-cycle/caduceus-chords.htm
Привет, Гость.
Предлагаем пройти революционный курс по гитаре.
Подарок от PrimaNota.Ru, забирай!