PrimaNota.ru - самый крупный в мире бесплатный архив песенных текстов, аккордов, табулатур и нот


Sin Cycle - Bleak - таба, видео

Регистрация Запомнить меня
Войти через:  Facebook Google Twitter Vk Yandex Mail.ru

Sin Cycle - Bleak - таба, видео

Печатать
Просмотров: 86
Уроки эстрадного вокала в Санкт-Петербурге
Song: Bleak
Artist: Sin Cycle
Album: Follow the Bleeder
As tabbed by Joe Muggah

Tuned down 1/2 step

Verse
eb--0-----2-----3-----2-----0-----0-----2-----3-----5-----3---
Bb----0-----0-----0-----0-----0-----0-----0-----0-----0-----0-
Gb------------------------------------------------------------
Db-2-----2-----2-----2-----2-----0-----0-----0-----0-----0----
Ab------------------------------------------------------------
Eb------------------------------------------------------------

(continued)
eb--0-----2-----3-----2-----0-----0-----2-----3-----5-----3---
Bb----0-----0-----0-----0-----0-----0-----0-----0-----0-----0-
Gb------------------------------------------------------------
Db------------------------------------------------------------
Ab-3-----3-----3-----3-----3-----2-----2-----2-----2-----2----
Eb------------------------------------------------------------

Chorus
eb--0----0----0---2----3----2---0----0----0---5----3-----2----
Bb----0----0--------0----0--------0----0--------0----0--------
Gb------------------------------------------------------------
Db------------------------------------------------------------
Ab-3----3----3---3----3----3---2----2----2---2----2----2------
Eb------------------------------------------------------------

Bridge
eb--0----0----0---0----0----0---0----0----0---0----0-----0----
Bb----0----0--------0----0--------0----0--------0----0--------
Gb------------------------------------------------------------
Db-2----2----2---4----4----4----------------------------------
Ab-----------------------------3----3----3---2----3----5------
Eb------------------------------------------------------------

(continued)
eb--0----0----0---0----0----0---0----0----0---0----0-----0----
Bb----0----0--------0----0--------0----0--------0----0--------
Gb------------------------------------------------------------
Db-2----2----2---4----4----4---7----5----4---5----4----2------
Ab------------------------------------------------------------
Eb------------------------------------------------------------

Solo
eb------------------------------------------------------------
Bb--12v--12\10---10v---10/15--15v--15\12--12--13--12----------
Gb------------------------------------------------------------
Db------------------------------------------------------------
Ab------------------------------------------------------------
Eb------------------------------------------------------------

(continued)
eb------------------------------------------------------------
Bb--12^-12V---12\10--10^-10v---10\8--8v--8\7--7--8--7--5------
Gb------------------------------------------------------------
Db------------------------------------------------------------
Ab------------------------------------------------------------
Eb------------------------------------------------------------

(continued)
eb------------------------------------------------------------
Bb--12v--12\10---10v---10/15--15v--15/17--17v--19v--17--------
Gb------------------------------------------------------------
Db------------------------------------------------------------
Ab------------------------------------------------------------
Eb------------------------------------------------------------

(continued)
eb--15p14p12--15p14p12--15p14--14p12p10--14p12p10--14p12------
Bb------------------------------------------------------------
Gb------------------------------------------------------------
Db------------------------------------------------------------
Ab------------------------------------------------------------
Eb------------------------------------------------------------

(continued)
eb--12p10p8--12p10p8--12p10--10p8p7--10p8p7--10p8-------------
Bb------------------------------------------------------------
Gb------------------------------------------------------------
Db------------------------------------------------------------
Ab------------------------------------------------------------
Eb------------------------------------------------------------

(continued)
eb--15p14p12--15p14p12--15p14--14p12p10--14p12p10--14p12------
Bb------------------------------------------------------------
Gb------------------------------------------------------------
Db------------------------------------------------------------
Ab------------------------------------------------------------
Eb------------------------------------------------------------

(continued)
eb--12p10p8--12p10p8--12p10--10p8p7--10p8p7--10p8----7^-------
Bb---------------------------------------------------7^-------
Gb------------------------------------------------------------
Db------------------------------------------------------------
Ab------------------------------------------------------------
Eb------------------------------------------------------------


Verse
Chorus
verse
Chorus
Bridge
Bridge, Solo
Verse

     
Добавлено: 29.08.2013
Другие материалы по этой песне:
  • Аккорды и текст

Страница создана 29.08.2013
http://primanota.ru/sin-cycle/bleak-chords.htm
Привет, Гость.
Предлагаем пройти революционный курс по гитаре.
Подарок от PrimaNota.Ru, забирай!