PrimaNota.ru - самый крупный в мире бесплатный архив песенных текстов, аккордов, табулатур и нот


Sin Cycle - Back To Me - таба, видео

Регистрация Запомнить меня
Войти через:  Facebook Google Twitter Vk Yandex Mail.ru

Sin Cycle - Back To Me - таба, видео

Печатать
Просмотров: 66
Song: Back to Me
Artist: Sin Cycle
Album: Follow the Bleeder
As tabbed by Joe Muggah

Tuned down 1/2 step

Verse
eb-----------------0-0-0--0-0-0--0-0-0--0-------------------
Bb-----------------1-1-1--1-1-1--1-1-1--1-------------------
Gb-----------------2-2-2--2-2-2--2-2-2--2-------------------
Db-----------------2-2-2--2-2-2--2-2-2--2-------------------
Ab--3--2--------0--0-0-0--0-0-0--0-0-0--0---2--3------------
Eb--------3--2-------------------------------------1--0--3--

(continued)
eb--3-3-3--3-3-3--3-3-3--3----------------------------------
Bb--3-3-3--3-3-3--3-3-3--3----------------------------------
Gb--0-0-0--0-0-0--0-0-0--0----------------------------------
Db--0-0-0--0-0-0--0-0-0--0----------------------------------
Ab--2-2-2--2-2-2--2-2-2--2----------------------------------
Eb--3-3-3--3-3-3--3-3-3--3----------------------------------

Chorus
eb-----------------0-0-0--0-0-0--0-0-0--0-------------------
Bb-----------------1-1-1--1-1-1--1-1-1--1-------------------
Gb-----------------0-0-0--0-0-0--0-0-0--0-------------------
Db--------0--------2-2-2--2-2-2--2-2-2--2---------0---------
Ab--2--3--------3--3-3-3--3-3-3--3-3-3--3---2--3--------0---
Eb-----------3---------------------------------------3------

(continued)
eb--0-0-0--0-0-0--0-0-0--0----------------------------------
Bb--1-1-1--1-1-1--1-1-1--1----------------------------------
Gb--2-2-2--2-2-2--2-2-2--2----------------------------------
Db--2-2-2--2-2-2--2-2-2--2----------------------------------
Ab--0-0-0--0-0-0--0-0-0--0----------------------------------
Eb----------------------------------------------------------

Riff 1
eb----------------------------------------------------------
Bb----------------------------------------------------------
Gb-------14-14-14--14-14-14--14-14-14--14-------------------
Db--------x--x--x---x--x--x---x--x--x---x-------------------
Ab--3-/--12-12-12--12-12-12--12-12-12--12--12-\---2/--------
Eb----------------------------------------------------------

(continued)
eb----------------------------------------------------------
Bb----------------------------------------------------------
Gb--12-12-12--12-12-12--12-12-12--12------------------------
Db---x--x--x---x--x--x---x--x--x---x------------------------
Ab--10-10-10--10-10-10--10-10-10--10--10-\------------------
Eb----------------------------------------------------------

Riff 2
eb----------------------------------------------------------
Bb----------------------------------------------------------
Gb-------17-17-17--17-17-17--17-17-17--17-------------------
Db--------x--x--x---x--x--x---x--x--x---x-------------------
Ab--2-/--15-15-15--15-15-15--15-15-15--15--15-\---2/--------
Eb----------------------------------------------------------

(continued)
eb----------------------------------------------------------
Bb----------------------------------------------------------
Gb--14-14-14--14-14-14--14-14-14--14------------------------
Db---x--x--x---x--x--x---x--x--x---x------------------------
Ab--12-12-12--12-12-12--12-12-12--12--12-\------------------
Eb----------------------------------------------------------


Verse
Chorus
Verse
Chorus
Verse, Riff 1
Chorus, Riff 2
     
Добавлено: 08.11.2013
Другие материалы по этой песне:
  • Аккорды и текст

Страница создана 08.11.2013
http://primanota.ru/sin-cycle/back-to-me-chords.htm
Привет, Гость.
Предлагаем пройти революционный курс по гитаре.
Подарок от PrimaNota.Ru, забирай!