PrimaNota.ru - самый крупный в мире бесплатный архив песенных текстов, аккордов, табулатур и нот


Sin Cycle - A New Day - таба, видео

Регистрация Запомнить меня
Войти через:  Facebook Google Twitter Vk Yandex Mail.ru

Sin Cycle - A New Day - таба, видео

Печатать
Просмотров: 89
Уроки эстрадного вокала в Санкт-Петербурге
Song: A New Day
Artist: Sin Cycle
Album: Follow the Bleeder
As tabbed by Joe Muggah

Tuned down 1/2 step

Verse
eb-----------------------------------------------------------
Bb-----------------------------------------------------------
Gb--6--6-6--6-6--4--4-4--4-4--2--2-2--2-2-------7--7---------
Db--x--x-x--x-x--x--x-x--x-x--x--x-x--x-x--x-x--x--x---------
Ab--4--4-4--4-4--2--2-2--2-2--2--2-2--2-2--x-x--5--5---------
Eb--5--5-5--5-5--3--3-3--3-3--2--2-2--2-2--x-x--7--7---------

Chorus
eb-----------------------------------------------------------
Bb--8--8-8--8-8-8--8--8-8--8-8-8--7--7-7--7-7-7--8-8--7-7-7--
Gb--0--0-0--0-0-0--0--0-0--0-0-0--0--0-0--0-0-0--0-0--0-0-0--
Db--x--x-x--x-x-x--x--x-x--x-x-x--x--x-x--x-x-x--x-x--x-x-x--
Ab--7--7-7--7-7-7--7--7-7--7-7-7--5--5-5--5-5-5--5-5--5-5-5--
Eb--0--0-0--0-0-0--0--0-0--0-0-0-----------------------------

(continued)
eb-----------------------------------------------------------
Bb--8--8-8--8-8-8--8--8-8--8-8-8--8--8-8--8-8-8--7-7--7-7-7--
Gb--0--0-0--0-0-0--0--0-0--0-0-0--0--0-0--0-0-0--0-0--0-0-0--
Db--0--0-0--0-0-0--0--0-0--0-0-0--0--0-0--0-0-0--0-0--0-0-0--
Ab--x--x-x--x-x-x--x--x-x--x-x-x--x--x-x--x-x-x--x-x--x-x-x--
Eb--8--8-8--8-8-8--8--8-8--8-8-8--7--7-7--7-7-7--5-5--5-5-5--

Post-Chorus
eb--0--0-0--0-0-0--0--0-0--0-0-0--0---0-0--0-0-0--0-0--0-0-0-
Bb--5--5-5--5-5-5--5--5-5--5-5-5--5---5-5--5-5-5--5-5--5-5-5-
Gb--0--0-0--0-0-0--0--0-0--0-0-0--0---0-0--0-0-0--0-0--0-0-0-
Db--x--x-x--x-x-x--x--x-x--x-x-x--x---x-x--x-x-x--x-x--x-x-x-
Ab--3--3-3--3-3-3--3--3-3--3-3-3--3/5-5-5--5-5-5--5-5--5-5-5-
Eb-----------------------------------------------------------

(continued)
eb-----------------------------------------------------------
Bb--7--7-7--7-7-7--8-8--7-7-7--7--7-7--7-7-7--8-8--7-7-7-----
Gb--0--0-0--0-0-0--0-0--0-0-0--0--0-0--0-0-0--0-0--0-0-0-----
Db--x--x-x--x-x-x--x-x--x-x-x--x--x-x--x-x-x--x-x--x-x-x-----
Ab--7--7-7--7-7-7--7-7--7-7-7--5--5-5--5-5-5--5-5--5-5-5-----
Eb-----------------------------------------------------------

(continued; end on)
eb-----------------------------------------------------------
Bb--7--7-7--7-7-7--8-8--7-7-7--7--7-7--7-7-7--7-7--7-7-7-----
Gb--0--0-0--0-0-0--0-0--0-0-0--0--0-0--0-0-0--0-0--0-0-0-----
Db--0--0-0--0-0-0--0-0--0-0-0--0--0-0--0-0-0--0-0--0-0-0-----
Ab--x--x-x--x-x-x--x-x--x-x-x--x--x-x--x-x-x--x-x--x-x-x-----
Eb--8--8-8--8-8-8--8-8--8-8-8--7--7-7--7-7-7--5-5--5-5-5-----

Riff
eb-----------------------------------------------------------
Bb--7/8--8-------8--\----------------------------------------
Gb--0----0-------0-------------------------------------------
Db--0----0-------0-------------------------------------------
Ab--x----x-------x-------------------------------------------
Eb--5/8--8-------8--\----------------------------------------

Bridge
eb----7-----7-----7----6-----6-----6----7-----7-----7--------
Bb------8-----8----------7-----7----------8-----8------------
Gb--9-----9-----9----9-----9-----9----9-----9-----9----------
Db-----------------------------------------------------------
Ab-----------------------------------------------------------
Eb-----------------------------------------------------------

(continued)               end on
eb-----12-----12-----12--|--12p10---------14--12v------------
Bb--------8------8-------|--------12-------------------------
Gb--9-------9------9-----|------------11---------------------
Db-----------------------|-----------------------------------
Ab-----------------------|-----------------------------------
Eb-----------------------|-----------------------------------


Verse
Chorus
Post-Chorus
Verse
Chorus
Post-Chorus
Riff
Bridge
Verse
     
Добавлено: 22.09.2013
Другие материалы по этой песне:
  • Аккорды и текст

Страница создана 22.09.2013
http://primanota.ru/sin-cycle/a-new-day-chords.htm
Привет, Гость.
Предлагаем пройти революционный курс по гитаре.
Подарок от PrimaNota.Ru, забирай!