PrimaNota.ru - самый крупный в мире бесплатный архив песенных текстов, аккордов, табулатур и нот


Sin Cos Tan - Limbo - бас-таба, видео

Регистрация Запомнить меня
Войти через:  Facebook Google Twitter Vk Yandex Mail.ru

Sin Cos Tan - Limbo - бас-таба, видео

Печатать
Просмотров: 76
Авторы: Jori Hulkkonen, Juho Paalosmaa

----------------------------- LIMBO - SinCosTan --------------------------

Tabbed By: Brendon Warwick  
Tuning: EADG

Main Riff

G|------------------------------------------------------------------------------|
D|----8-----------------8-------------------8-----------------8-----------------|
A|---------------11-----------------11---------------11-------------------------|
E|-------11-9-11-------------11-9-11----------11-9-11-----------11-9-11-9-6-----|

Bridge

G|-------------------------------------------------------------------------------|
D|-------------------------------------------------------------------------------|
A|----9-9-9-9-9-9-9-9-9-9-9-9-9-9-9-9----6-6-6-6-6-6-6-6-6-6-6-6-6-4-5-6---------|
E|-------------------------------------------------------------------------------|

Chorus

G|--------------------------------------------------------------------------------|
D|-------------------------------------------------------------6-6-6-6-6-6-6-6----|
A|----9-9-9-9-9-9-9---8---6-6-6-6-6-6-6---5---4-4-4-4-4-4-4-4---------------------|
E|--------------------------------------------------------------------------------|

This then repeats through the whole song, when the main riff comes around for a second measure
in the synth solo there's a double hit on the Bb

G|-------------------------------------------------------------------------------|
D|---88----------------88------------------88-----------------88-----------------|
A|---------------11-----------------11---------------11--------------------------|
E|-------11-9-11-------------11-9-11----------11-9-11------------11-9-11-9-6-----|
Добавлено: 03.03.2016
Другие материалы по этой песне:
  • Аккорды и текст

Страница создана 03.03.2016
http://primanota.ru/sin-cos-tan/limbo-chords.htm
Привет, Гость.
Предлагаем пройти революционный курс по гитаре.
Подарок от PrimaNota.Ru, забирай!