PrimaNota.ru - самый крупный в мире бесплатный архив песенных текстов, аккордов, табулатур и нот


Sin Bandera - Mientes Tam Bien - таба, видео

Регистрация Запомнить меня
Войти через:  Facebook Google Twitter Vk Yandex Mail.ru

Sin Bandera - Mientes Tam Bien - таба, видео

Печатать
Просмотров: 179
esta cancion esta genial y ps tambien me gusta pokillo (x eso la sake jaja ) bueno bay se cuidan 



:::Acordes:::
       eBGDAE               eBGDAE
G    : 330023        Am/G : 012203
D/F# : 232002        C    : 01023x
Am   : 01220x        Dsus2: 0320xx
D    : 2320xx        A    : 02220x
Cadd9: 33023x        Em   : 000220
Em7/B: 03022x        Em7  : 030220

******************************************************
Intro [0:0] - Guitarra1 (Leonel)
            - Guitarra2 (Noel)
          G                 G                D/F#              D/F#
e|-----------------|-----------------|---------------0-|-----------------|
B|-------3-------3-|-------3-------3-|-------3---------|-------3-------3-|
G|-----0-------2---|-----0-------2---|-----2-------2---|-----2-------2---|
D|---0-------0-----|---0-------0-----|---0-------0-----|---0-------0-----|
A|-----------------|-----------------|-----------------|-----------------|
E|-3-------3-------|-3-------3-------|-2-------2-------|-2-------2-------|
<--Guitarra1
-->Guitarra2
e|-------3---------|-------3---------|-------3---------|-------0---------|
B|---------------3-|---------------3-|---------------3-|---------------3-|
G|-----2-------2---|-----2-------2---|-----2-------2---|-----2-------2---|
D|---0-------0-----|---0-------0-----|---0-------0-----|---0-------0-----|
A|-----------------|-----------------|-----------------|-----------------|
E|-3-------3-------|-3-------3-------|-2-------2-------|-2-------2-------|

          G                 G                D/F#              D/F#
e|-----------------|-----------------|---------------0-|-----------------|
B|-------3-------3-|-------3-------3-|-------3---------|-------3---------|
G|-----0-------2---|-----0-------2---|-----2-------2---|-----2-----------|
D|---0-------0-----|---0-------0-----|---0-------0-----|---0-------------|
A|-----------------|-----------------|-----------------|-----------------|
E|-3-------3-------|-3-------3-------|-2-------2-------|-2---------------|
<--Guitarra1
-->Guitarra2
e|-------3---------|-------3---------|-------3---------|-----------------|
B|---------------3-|---------------3-|---------------3-|-------3-------3-|
G|-----2-------2---|-----2-------2---|-----2-------2---|-----2-------2---|
D|---0-------0-----|---0-------0-----|---0-------0-----|---0-------0-----|
A|-----------------|-----------------|-----------------|-----------------|
E|-3-------3-------|-3-------3-------|-2-------2-------|-2-------2-------|

******************************************************
Fill1 [0:07] - Guitarra3

e|-----------------|-----------------|-----------------|-----------------|
B|---------12----13|-12--------------|---------12----13|-12--------------|
G|------12-12------|-12-12-----------|------12-12------|-12-12-----------|
D|---12-12-------12|----12-12--------|---12-12-------12|----12-12--------|
A|---14------------|-------14--------|---14------------|-------14--------|
E|-----------------|-----------------|-----------------|-----------------|

******************************************************
Estrofa1 [0:14] - Guitarra1
                - Guitarra2
         Am                 D                 G               D/F#
e|-------0---------|-------0---------|-------3---------|-----------------|
B|---------------1-|-----3---------3-|---------------3-|-------3-------3-|
G|-----2-------2---|---2---------2---|-----0-------0---|-----2-------2---|
D|---2-------2-----|-0---------0-----|---0-------0-----|---0-------0-----|
A|-0-------0-------|-----------------|-----------------|-----------------|
E|-----------------|---------2-------|-3-------3-------|-2-------2-------|
<--Guitarra1
-->Guitarra2
e|-------0---------|-------2---------|-----------------|-----------------|
B|---------------1-|-----3---------3-|-------3-------3-|-------3-------3-|
G|-----2-------2---|---2---------2---|-----0-------0---|-----2-------2---|
D|---2-------2-----|-0---------0-----|---0-------0-----|---0-------0-----|
A|-0-------0-------|-----------------|-----------------|-----------------|
E|-----------------|---------2-------|-3-------3-------|-2-------2-------|

       Cadd9                D                 G               D/F#
e|-----------------|-------2---------|-----------------|-----------------|
B|-------3---------|-----3---------3-|-------3-------3-|-------3-------3-|
G|-----0-------0---|---2---------2---|-----0-------2---|-----0-------2---|
D|---2-------2-----|-0---------0-----|---0-------0-----|---0-------0-----|
A|-3-------3-------|-----------------|-----------------|-----------------|
E|-----------------|---------2-------|-3-------3-------|-2-------2-------|
<--Guitarra1
-->Guitarra2
e|-------0---------|-------2---------|-------3---------|-----------------|
B|---------------3-|-----3---------3-|-----3-------3---|-------3-------3-|
G|-----0-------0---|---2---------2---|---0-------------|-----2-------2---|
D|---2-------2-----|-0-------0-0-----|-----------0-----|---0-------0-----|
A|-3-------3-------|-----------------|-----------------|-----------------|
E|-----------------|-----------------|-3-------3-------|-2-------2-------|

        Em                  D               Cadd9             Em7/B
e|-------0---------|-------2---------|-------0---------|-------0---------|
B|-----------------|-----3-----------|-------------3---|---------------3-|
G|-----0-----------|---2-------------|-----0-----0---0-|-----0-------0---|
D|---2-----2-------|-0-------0-------|---2-------------|---2-------2-----|
A|-----------------|-----------------|-3-------3-------|-2---------------|
E|-0---------------|-----------------|-----------------|-----------------|
<--Guitarra1
-->Guitarra2
e|-------0---------|-------2---------|-------0---------|-------0---------|
B|-----0-----------|-----3---------3-|-----3---------1-|-----3---------3-|
G|---0-------------|---2---------2---|---0---------0---|---0---------0---|
D|-----------------|-0---------0-----|-----------2-----|-----------0-----|
A|-----------------|-----------------|-3-------3-------|-2-------2-------|
E|-0-------0-------|-----------------|-----------------|-----------------|

         Am               Am/G            Dsus2 - D
e|-------0---------|-----------------|-------0-------2-|-------3p2--------|
B|---------------1-|-------1-------1-|-----3-------3---|------------------|
G|-----2-------2---|-----0-------0---|---2-------2-----|------------------|
D|---2-------2-----|---2-------2-----|---------0-------|-0----------------|
A|-0-------0-------|-----------------|-----------------|------------------|
E|-----------------|-3-------3-------|-2---------------|------------------|
<--Guitarra1
-->Guitarra2
e|-------0---------|-----------------|---------0-----2-|-----------0------|
B|-----1---------1-|-------1-------1-|-------3---------|------3-----------|
G|---2---------2---|-----0-------0---|-----2-------2---|------------------|
D|-----------2-----|---2-------2-----|---0------0------|------------------|
A|-0-------0-------|-----------------|-----------------|------------------|
E|-----------------|-3-------3-------|-2---------------|------------------|

Am                    D                G    D/F#
   Que te quedarás conmigo una vida entera
Cadd9                    D               G    D/F#
   Que contigo adiós invierno solo primavera
Em                      D
   Que las olas son de magia, no de agua salada
Cadd9           Em7/B               Am
   Yo te creo todo y tú no me das nada,
Am/G             D
   Tú no me das nada.

******************************************************
Estrofa2 [0:42] - Guitarra1
                - Guitarra2
        Cadd9               D                 G               D/F#
e|-------0---------|-------2---------|-------3---------|-----------------|
B|-------------3---|-----3---------3-|-----3---------3-|-------3-------3-|
G|-----0-----0---0-|---2---------2---|---0---------0---|-----2-------2---|
D|---2-----2-------|-0---------0-----|-----------0-----|---0-------0-----|
A|-3---------------|-----------------|-----------------|-----------------|
E|-----------------|---------2-------|-3-------3-------|-2-------2-------|
<--Guitarra1
-->Guitarra2
e|-------0---------|-------2-------3-|---------------3-|-----------------|
B|-----3---------3-|-----3-------3---|-------3---------|-------3-------3-|
G|---0---------0---|---2-------2-----|-----0-------0---|-----2-------2---|
D|-----------2-----|-0---------------|---0-------0-----|---0-------0-----|
A|-3-------3-------|-----------------|-----------------|-----------------|
E|-----------------|---------2-------|-3-------3-------|-2-------2-------|

        Cadd9               D                 G               D/F#
e|-------0-------0-|-------2---------|-------3---------|-----------------|
B|-------------3---|-----3-------3---|---------------3-|-------3-------3-|
G|-----0-----0-----|---2-------2-----|-----0-------0---|-----2-------2---|
D|---2-------------|-0-------0-------|---0-------0-----|---0-------0-----|
A|-3---------------|-----------------|-----------------|-----------------|
E|-----------------|---------------2-|-3-------3-------|-2-------2-------|
<--Guitarra1
-->Guitarra2
e|-------0---------|-----------0-----|-------3---------|-----------------|
B|---------------3-|-------3-------3-|---------------3-|-------3-------3-|
G|-----0-------0---|-----2---2---2---|-----0-------0---|-----2-------2---|
D|---2-------2-----|---0-------------|---0-------0-----|---0-------0-----|
A|-3-------3-------|-----------------|-----------------|-----------------|
E|-----------------|-2---------------|-3-------3-------|-2-------2-------|

        Em7                 D               Cadd9            Cadd9/B
e|-------0---------|-------2---------|-------3-------3-|-------3-------3-|
B|-----------------|-----3-------3---|-----3-------3---|-----3-----------|
G|-----0-----------|---2-------2-----|---0-------0-----|---0---------0---|
D|---2-----2-------|-0-------0-------|---------2-------|-----------2-----|
A|-----------------|---------------2-|-3---------------|-2-------2-------|
E|-0---------------|-----------------|-----------------|-----------------|
<--Guitarra1
-->Guitarra2
e|-----------------|-------2-------2-|-------0-------0-|-----------------|
B|-------0-------0-|-----3-------3---|-----3-------3---|-------3---------|
G|-----0-------0---|---2-------2-----|---0-------0-----|-----0-------0---|
D|---2-------2-----|-0-------0-------|-----------------|---2-------2-----|
A|-----------------|-----------------|-3-------3-------|-2-------2-------|
E|-0-------0-------|-----------------|-----------------|-----------------|

         Am               Am/G            Dsus2 - D
e|-------3-------3-|-------3-------3-|-------0-------2-|-------3p2-------|
B|-----1-------1---|-----1-------1---|-----3-------3---|-----------------|
G|---2-------2-----|---0-------0-----|---2-------2-----|-----------------|
D|-----------------|-----------------|---------0-------|-0---------------|
A|-0-------0-------|-----------------|-----------------|-----------------|
E|-----------------|-3-------3-------|-2---------------|-----------------|
<--Guitarra1
-->Guitarra2
e|---------------0-|-----------------|---------0-----2-|-----------0-----|
B|-------1---------|-------1-------1-|-------3---------|------3----------|
G|-----2-------2---|-----0-------0---|-----2-------2---|-----------------|
D|---2-------2-----|---2-------2-----|---0-------0-----|-----------------|
A|-0-------0-------|-----------------|-----------------|-----------------|
E|-----------------|-3-------3-------|-2---------------|-----------------|

Cadd9               D                      G    D/F#
   Que si sigo tu camino llegaré hasta el cielo
Cadd9                  D                     G   D/F#
   Tú me mientes en la cara y yo me vuelvo ciego
Em                    D
   Yo me trago tus palabras tú juegas un juego
Cadd9            Em7/B               Am
   Y me brilla el mundo cuando dices luego
Am/G              D
   Cuando dices luego.

******************************************************
Pre-coro1 [1:11] - Guitarra1
                 - Guitarra2

       Cadd9                D             G  -  D/F#       Em   -   D
e|-------0-------0-|-------2---------|-----------------|-------0---------|
B|-------------3---|-----3---------3-|-------3-------3-|-----0-------3---|
G|-----0-----------|---2---------2---|-----0-------2---|---0-----------2-|
D|---2-------2-----|-0---------0-----|---0-------0-----|-----------0-----|
A|-3-------3-------|-----------------|-----------------|-----------------|
E|-----------------|---------2-------|-3-------2-------|-0---------------|
<--Guitarra1
-->Guitarra2
e|-------3---------|-------2---------|-------3-------3-|-------3---------|
B|-----3-------3---|-----3---------3-|-----3-------3---|-----3-------3---|
G|---0-------0-----|---2---------2---|---0-------0-----|---0-------2---2-|
D|-----------------|-0---------0-----|-----------------|---------0-------|
A|-3-------3-------|-----------------|-----------------|-----------------|
E|-----------------|---------2-------|-3-------2-------|-0---------------|

       Cadd9                D             G  -  D/F#       Em   -   D
e|-------0---------|-------2---------|---3---0---3---0-|---3---0---------|
B|-----3-------3---|-----3---------3-|-----3-------3---|-----3-------3---|
G|---0-------0---0-|---2---------2---|-----------------|-----------2---2-|
D|---------2-------|-0---------0-----|-----------------|---------0-------|
A|-3---------------|-----------------|-----------------|-----------------|
E|-----------------|---------2-------|-3-------2-------|-0---------------|
<--Guitarra1
-->Guitarra2
e|-----------------|-------2---------|---------------0-|-----------------|
B|-------3-------3-|-----3---------3-|-------3-----3---|-------3-----3---|
G|-----0-------0---|---2---------2---|-----0-----2-----|-----0-----2---2-|
D|---2-------2-----|-0---------0-----|---0-------------|---2-----0-------|
A|-3-------3-------|-----------------|-----------------|-----------------|
E|-----------------|---------2-------|-3-------2-------|-0---------------|

          C                 C             Dsus2 - D             D
e|---------------0-|-------0---------|-------3-2-------|-----0-----------|
B|-------1-----3---|-----3-------1---|-----3-----3-----|---3-----3-------|
G|-----0-----0-----|---0-------0---0-|---2---------2-0-|-------2---------|
D|---2-----2-------|---------2-------|-0---------------|-4---------------|
A|-3---------------|-3---------------|-----------------|-----------------|
E|-----------------|-----------------|-----------------|-----------------|
<--Guitarra1
-->Guitarra2
e|-------0---------|-------0---------|-------3-2-----0-|-------2---------|
B|-----3-------3---|-----3-------3---|-----3-----3-----|-----3-------3---|
G|---0-------0---0-|---0-------0---0-|---2---------2---|---2-------2---2-|
D|---------2-------|---------2-------|-0---------------|-0-------0-------|
A|-3---------------|-----------------|-----------------|-----------------|
E|-----------------|-3---------------|-----------------|-----------------|

               Cadd9                  D
Cuando dices siento, siento que eres todo
              G           D/F#     Em
Cuando dices vida, yo estaré contigo
      D     Cadd9                D
Tomas de mi mano, y por dentro lloro
              G             D/F#   Em
Aunque sea mentira me haces sentir vivo
           D        C                   D
Aunque es falso el aire, siento que respiro

******************************************************
Coro1 [1:32] - Guitarra1
             - Guitarra2
          C                 C                 D                 D
e|-------3-------3-|-------3-------3-|-------3-------2-|-------2------(2)|
B|-----1-------1---|-----1-------1---|-----3-------3---|-----3-------3---|
G|---0-------0-----|---0-----0h2-----|---2-------2-----|---2-------2-----|
D|-----------------|-----------------|-0-------0-------|-0-------0-------|
A|-3-------3-------|-3---------------|-----------------|-----------------|
E|-----------------|-----------------|-----------------|-----------------|
<--Guitarra1
-->Guitarra2
e|-------3-------3-|-------3---------|-------3/2-----0-|-------2-------3-|
B|-----3-------3---|-----3-----------|-----3-------3---|-----3-------3---|
G|---0-------0-----|---0-----0h2-----|---2-------2-----|---2-------2-----|
D|-----------------|-----------------|-0---------------|-0-------0-------|
A|-3-------3-------|-3---------------|-----------------|-----------------|
E|-----------------|-----------------|-----------------|-----------------|

          G               D/F#               Em7                D
e|-------3---------|-------0---------|-------0---------|-------2---------|
B|-----3-------3---|-----3-------3---|---------------3-|-----3-------3---|
G|---0-------0---0-|---2-------2---2-|-----0-------0---|---2-------2-----|
D|---------0-------|-----------------|---2-------2-----|-0-------0-------|
A|-----------------|-----------------|-----------------|---------------2-|
E|-3---------------|-2------(2)------|-0-------0-------|-----------------|
<--Guitarra1
-->Guitarra2
e|-------3-------3-|-------3-------3-|-------3-------3-|-------3-2-0-----|
B|-----3-------3---|-----3-------3---|-----3-------3---|-----3-----------|
G|---0-------0-----|---0-------0-----|---0-------0-----|---2-------------|
D|-----------------|-----------------|-----------------|-0---------------|
A|-----------------|-----------------|-----------------|-------------0-2-|
E|-3-------3-------|-2-------2-------|-0-------0-------|-----------------|

          C                 C                 D                 D
e|---------------3-|-------3---------|-------5-------2-|-------2---------|
B|-------3-----3---|-----3-----------|-----3-------3---|-----3-------3---|
G|-----0-----0-----|---0-----0h2-----|---2-------2-----|---2-------2---2-|
D|---0-----2-------|-----------------|-0-------0-------|-0-------0-------|
A|-3---------------|-3---------------|-----------------|-----------------|
E|-----------------|-----------------|-----------------|-----------------|
<--Guitarra1
-->Guitarra2
e|-------0-------0-|-------0---------|---------3h2-----|-------2---------|
B|-----1-------1---|-----1-----------|-----3---------3-|-----3-------3---|
G|---0-------0-----|---0-----0h2-----|---2---2-----2---|---2-------2---2-|
D|---------2-------|-----------------|-0---------------|-0-------0-------|
A|-3---------------|-3---------------|-----------------|-----------------|
E|-----------------|-----------------|-----------------|-----------------|

         Em                D                  A                 A
e|-----------0-----|-------2---------|-----------0-----|-------0---------|
B|-------3-------0-|-----3-------3---|-----2---------2-|-----2-------2---|
G|-----0---0---0---|---2-------2---2-|---------2-------|---2-------2-----|
D|---2-------------|-0-------0-------|---2---2---------|-----------------|
A|-----------------|-----------------|-0---------------|-0-------------2-|
E|-0---------------|-----------------|-----------------|-----------------|
<--Guitarra1
-->Guitarra2
e|-------0---------|-------0---------|-------0-------0-|-------0---------|
B|-----0-------0---|-----3-------3---|-----2-------2---|-----2-------2---|
G|---0-------0---0-|---2-------2---2-|---2-------2-----|---2-------2-----|
D|-----------------|-0-------0-------|---------2-------|-----------------|
A|-----------------|-----------------|-0---------------|-0-------0-----2-|
E|-0-------0-------|-----------------|-----------------|-----------------|

         C                  C                 D                 D
e|-----------0-----|-------0------(0)|-----------0-----|-----------------|
B|-------3-------1-|-----1-------1---|-----3-------3---|-3---------------|
G|-----0---0---0---|---0-------0-----|---2-----2-------|-----------------|
D|---2-------------|-----------------|-0-----0-------0-|-----------------|
A|-3---------------|-3-------3-------|-----------------|-----------------|
E|-----------------|-----------------|-----------------|-----------------|
<--Guitarra1
-->Guitarra2
e|-------0---------|-------0---------|-------3---------|------0----------|
B|-----1---3-------|-----1-----------|-----3---3-------|-----------------|
G|---0-------0---0-|---0-------------|---2-------2-0---|---(0)-----------|
D|-------------2---|-----------------|-0-------------0-|-4---------------|
A|-3---------------|-3---------------|-----------------|-----------------|
E|-----------------|-----------------|-----------------|-----------------|

  C             D
  Mientes tan bien,
                    G
  Que me sabe a verdad
D/F#              Em
  Todo lo que me das
             D
  Y ya te estoy amando
  C             D
  Mientes tan bien,
                        Em
  Que he llegado a imaginar
           D              A
  Que mi amor llenas tu piel
                         C
  Y aunque todo es de papel
D             [Fill2]
  Mientes tan bien.

******************************************************
Fill2 [2:07] - Guitarra1
             - Guitarra2
         Em                Em                Em7
e|---------------2-|-------0---------|-------------0---|
B|-------0-----0---|-----0---------0-|-------3---------|
G|-----0-----0-----|---0---------0---|-----0-----0-----|
D|---2-----2-------|-2---------2-----|---2-----2-------|
A|-----------------|-----------------|-----------------|
E|-0---------------|---------0-------|-0---------------|

******************************************************
Pre-coro2 [2:12] - Guitarra1
                 - Guitarra2

Cuando dices siento, siento que eres todo,
cuando dices vida yo estaré contigo.
Tomas de mi mano, y por dentro lloro,
aunque sea mentira me haces sentir vivo,
aunque es falso el

          C                 C            Dsus2 - D
e|-------0---------|-----------------|-------5---------|-----5-----------|
B|-------1-------1-|-------1-------1-|-----3-3-----3---|-----3-----------|
G|-----0-------0---|-----0-------0---|---2-------2---2-|---2-------------|
D|---2-------2-----|---2-------2-----|-0---------------|-0---------------|
A|-3-------3-------|-3-------3-------|-----------------|-----------------|
E|-----------------|-----------------|-----------------|-----------------|
 aire                        siento que respiro.

******************************************************
Coro2 [2:35] - Guitarra1
             - Guitarra2

Mientes tan bien,
que me sabe a verdad todo lo que me das, ya te estoy amando.
Mientes tan bien,
que he llegado a imaginar, que en mi amor llenas tu piel,
y aunque todo es de
          C                 C                 D                 D
e|---3-----2-----0-|-----------------|-------2---------|-------2---------|
B|-----1-----1-----|-1---3-----1-----|-----3---------3-|-----3---------3-|
G|-------0-----0---|---0---0-----0---|---2---------2---|---2---------2---|
D|-----------------|---------2-----2-|-0-------0-0-----|-0-------0-0-----|
A|-3---------------|-----------------|-----------------|-----------------|
E|-----------------|-----------------|-----------------|-----------------|
papel,                                 mientes tan bien
y aunque todo es de
          C                 C                 D                 D
e|---3---3-2-----0-|-----------------|-------2---------|-------2---------|
B|-----1-----1-----|-1---3-----1-----|-----3---------3-|-----3---------3-|
G|-------------0---|---0---0-----0---|---2---------2---|---2---------2---|
D|-----------------|---------2-----2-|-0-------0-0-----|-0-------0-0-----|
A|-3---------------|-----------------|-----------------|-----------------|
E|-----------------|-----------------|-----------------|-----------------|
papel,                               Ohhh
mientes lo se

******************************************************
Outro [3:25] - Guitarra1
             - Guitarra2

          G                 G                D/F#              D/F#
e|-----------------|-----------------|---------------0-|-----------------|
B|-------3-------3-|-------3-------3-|-------3---------|-------3-------3-|
G|-----0-------2---|-----0-------2---|-----2-------2---|-----2-------2---|
D|---0-------0-----|---0-------0-----|---0-------0-----|---0-------0-----|
A|-----------------|-----------------|-----------------|-----------------|
E|-3-------3-------|-3-------3-------|-2-------2-------|-2-------2-------|
<--Guitarra1
-->Guitarra2
e|-------3---------|-------3---------|-------3---------|-------0---------|
B|---------------3-|---------------3-|---------------3-|---------------3-|
G|-----2-------2---|-----2-------2---|-----2-------2---|-----2-------2---|
D|---0-------0-----|---0-------0-----|---0-------0-----|---0-------0-----|
A|-----------------|-----------------|-----------------|-----------------|
E|-3-------3-------|-3-------3-------|-2-------2-------|-2-------2-------|

          G                 G                D/F#
e|-----------------|-----------------|-----------------|
B|-------3-------3-|-------3-------3-|-------3-------3-|
G|-----0-------2---|-----0-------2---|-----2-------2---|
D|---0-------0-----|---0-------0-----|---0-------0-----|
A|-----------------|-----------------|-----------------|
E|-3-------3-------|-3-------3-------|-2-------2-------|
<--Guitarra1
-->Guitarra2
e|-------3---------|-------3---------|-------3---------|
B|---------------3-|---------------3-|---------------3-|
G|-----2-------2---|-----2-------2---|-----2-------2---|
D|---0-------0-----|---0-------0-----|---0-------0-----|
A|-----------------|-----------------|-----------------|
E|-3-------3-------|-3-------3-------|-2-------2-------|

******************************************************
Fill2 [3:31] - Guitarra3

e|-----------------|-----------------|-----------------|---------------x-|
B|---------12----13|-12--------------|---------12----13|-12------------3-|
G|------12-12----12|-12-12-----------|------12-12----12|-12--12--------0-|
D|---12-12---------|----12-12--------|---12-12---------|-----10--12----0-|
A|---10------------|-------10--------|---10------------|---------10----2-|
E|-----------------|-----------------|-----------------|---------------3-|
Добавлено: 31.05.2012
Другие материалы по этой песне:
  • Аккорды и текст

Страница создана 08.04.2012
http://primanota.ru/sin-bandera/mientes-tam-bien-chords.htm
Привет, Гость.
Предлагаем пройти революционный курс по гитаре.
Подарок от PrimaNota.Ru, забирай!