PrimaNota.ru - самый крупный в мире бесплатный архив песенных текстов, аккордов, табулатур и нот


Sin Bandera - De Viaje - текст песни, таба, видео

Регистрация Запомнить меня
Войти через:  Facebook Google Twitter Vk Yandex Mail.ru

Sin Bandera - De Viaje - текст песни, таба, видео

Печатать
Просмотров: 156
Este es el intro de esta bella canción,es muy cercano al del disco.Primero empieza
con estas notas y en la
segunda vuelta es lo mismo,sólo que una octava abajo, así que se puede tocar esto:

       C9      G5     Fmaj7-F         C9      G5     Fmaj7-F
E------0---0---3----------------------0---0---3----------------|
B--1-3-------0-3-1-0--1-----1-----1-3-------0-3-1-0--1-----1---|
G--------0----------------2-------------0----------------2-----|
D-----------------------3------------------------------3-------|
A------3------------------------------3------------------------|
E--------------3------1-----------------------3------1---------|

          C9                            G5
En este viaje que cada mañana lleno de sueños comienzo en la cama
          Am                                     Fmaj7                 F
Soy un turista que a veces no entiende el raro idioma que me habla la gente
	  C9	                              G5
Tantas aduanas entre unos y otros tantas fronteras volviéndonos pocos
	Am7                                       Fmaj7               F
Hay tantos muros entre las miradas que aunque nos vemos  nunca vemos nada

           Em               Am	           G5                   C9
He visto ruinas de sueños caídos mares de fe, desiertos de olvi-ido
	  Em              Am              Am7/G  F                G Gsus4
Y cuando más me encontraba  perdido, un mapa de mí me entregaste tú

       C9       G5        Fmaj7  F          C9      G5       Fmaj7 F
Continuemos el viaje los dos,       mismo cielo misma habitación,
       C9       Em       Am     Am7/G      F      C9                C9 (Intro)
ya no voy a buscar eres tu el lugar que soñé…de viaje        te amaré.


Perdí  mi tren por quedarme dormido, en el hotel de creerme vencido

Corrí las calles de valor perdido, pensé que el viaje no tenía sentido


He visto lunas de sueños caídos, mares de fe, desiertos de olvido

Y cuando más me encontraba perdido, un mapa de mí, me entregaste tú.


Continuemos el viaje los dos, mismo cielo misma habitación
                                                             D A F C9 Dm G Gsus4
ya no voy a buscar eres tu el lugar que soñé…de viaje te amaré


Continuemos el viaje los dos...

ya no voy a buscar eres tú el lugar que soñé... de viaje


       C9      G5     Fmaj7-F         C9      G5     Fmaj7-F                       G5
E------0---0---3----------------------0---0---3------------------------------------3--|
B--1-3-------0-3-1-0--1-----1-----1-3-------0-3-1-0--1-----1----------------------3---|
G--------0----------------2-------------0----------------2-----------------------0----|
D-----------------------3------------------------------3------------------------0-----|
A------3------------------------------3----------------------------------------2------|
E--------------3------1-----------------------3------1------------------------3-------|
                     Te amaré                                               Te amaré
(Hay una guitarra que hace este pequeño arreglo a esta altura)

                                         G---5s7-5--5s7--7 (ó en la cuerda de B---1s3--1--1s3--1)

Ya kauros kualkeiro kosa a mi mail nomas... math.radamanthys@gmail.com

AGRADECER CUESTA NADA...
Добавлено: 12.03.2012
Другие материалы по этой песне:
  • Аккорды и текст

Страница создана 12.03.2012
http://primanota.ru/sin-bandera/de-viaje-chords.htm
Привет, Гость.
Предлагаем пройти революционный курс по гитаре.
Подарок от PrimaNota.Ru, забирай!