PrimaNota.ru - самый крупный в мире бесплатный архив песенных текстов, аккордов, табулатур и нот


Simple Plan - Shut Up Live - бас-таба, видео

Регистрация Запомнить меня
Войти через:  Facebook Google Twitter Vk Yandex Mail.ru

Simple Plan - Shut Up Live - бас-таба, видео

Печатать
Просмотров: 154
This is the way how David Desrosiers play the bass in the live version... also you can 
this in the studio version too... Try it!!...

INTRO X2
G--------------------------------------|
D--------------------------------------|
A-----44444444444----------------------|
E-4-4-------------2222222222222-4-4----|

G---------------------------------------|
D---------------------------------------|
A--44444444-4/9-10-9--------------------|
E-------------------10-22222222222-4-4--|

VERSE X2
G--------------------------|
D--------------------------|
A-4444---------------------|
E------2222-4444-2222-4-4--|

PRE-CHORUS
G---------------------------|
D---------------------------|
A-------------4-------------|
E-66-44-22-44---66-44-222---|

CHORUS X2
G--------------------------|
D--------------------------|
A-44444444-----------------|
E----------44-66666666-2-4-|

REPEAT INTRO

VERSE X2
G--------------------------|
D--------------------------|
A-4444---------------------|
E------2222-4444-2222-4-4--|

PRE-CHORUS
G---------------------------|
D---------------------------|
A-------------4-------------|
E-66-44-22-44---66-44-222---|

CHORUS X2
G--------------------------|
D--------------------------|
A-44444444-----------------|
E----------44-66666666-2-4-|

REPEAT INTRO

BRIGDE (Follow the bass drum):
G----------------------------|
D—---------------------------| X4
A--4-------------------------|
E------4-4----2-----4-4------|

G-------------------------------|
D—------------------------------|
A--4-4--------------------------|
E-------4-4----22222222222222---|

CHORUS
G------------------|
D------------------|
A------------------|
E-4-4-66666666-2-4-|

G--------------------------|
D--------------------------|
A-44444444-----------------|
E----------44-66666666-2-4-|

G--------------------------------|
D--------------------------------|
A-44444444--11-11------------11--|
E-----------------66666666-2-----|

G-------------------------------|
D-------------------------------| X3
A-44444444--11-11---------------|
E-----------------66666666-2-4--|

END (End with the drums):
G----------|
D----------|
A--44-44---|
E----------|
Добавлено: 15.05.2012
Другие материалы по этой песне:
  • Аккорды и текст

Страница создана 15.05.2012
http://primanota.ru/simple-plan/shut-up-live-chords.htm
Привет, Гость.
Предлагаем пройти революционный курс по гитаре.
Подарок от PrimaNota.Ru, забирай!