PrimaNota.ru - самый крупный в мире бесплатный архив песенных текстов, аккордов, табулатур и нот


Simple Plan - Addicted - аккорды и текст, таба, видео

Регистрация Запомнить меня
Войти через:  Facebook Google Twitter Vk Yandex Mail.ru

Simple Plan - Addicted - аккорды и текст, таба, видео

Печатать
Просмотров: 296
Авторы: Arnold Lanni, Jean-François Stinco, Chuck Comeau, Pierre Bouvier, Sebastien Lefebvre

Addicted
Simple Plan
Song : Addicted
Band : Simple Plan
Tabbed By : Diamond Jerry (Raptureboy182@yahoo.com)

Tuning : Down 1/2 step (D#-G#-C#-F#-A#-D#) 
	 (Not Drop-D!!!)

------------------------------------------------------------------------------

[Intro]  

 (Guitar1) - Harmonic -
d#|----10--15-14-10----10---15-14-10-----10---15-14-10-----10---15-14-10------|
A#|-10---10----------10---10-----------10---10-----------10---10---------(10~)|
F#|---------------------------------------------------------------------------|  3x
C#|---------------------------------------------------------------------------|
G#|---------------------------------------------------------------------------|
D#|---------------------------------------------------------------------------|

 (Guitar2)  
d#|--2-2-2-2-2-2-2---3-3-3-3----0-0-0-0-----------|----2~---------------------|
A#|--3-3-3-3-3-3-3---3-3-3-3----2-2-2-2-----------|----3~---------------------|
F#|--2-2-2-2-2-2-2---0-0-0-0----2-2-2-2-----------|----2~---(Let ring)--------|  
C#|--0-0-0-0-0-0-0---0-0-0-0----2-2-2-2----(2x)---|----0~---------------------|
G#|--0-0-0-0-0-0-0---2-2-2-2----0-0-0-0-----------|----0~---------------------|
D#|------------------3-3-3-3----------------------|---------------------------|



[Verse] 

 (Guitar2)
d#|---------------------------------------------------------|
A#|--^^^^--^^^^--^^^^--^^^^---------------------------------|
F#|--7777--7777--7777--7777-----^^^^--^^^^--^^^^--^^^^------|
C#|--7777--7777--7777--7777-----5555--5555--5555--5555------|
G#|--5555--5555--5555--5555-----5555--5555--5555--5555------|
D#|-----------------------------3333--3333--3333--3333------|


[Pre-chorus]

 (Guitar1)
d#|-----------------------------------------|
A#|-----------------------------------------|
F#|-----------------------------------------|  
C#|--2--2-2----4--4-4----55555-----7--------|
G#|--2--2-2----4--4-4----55555-----7--------|
D#|--0--0-0----2--2-2----33333-----5--------|

 (Guitar2)
d#|--0--0-0----3--3-3----33333-----0--------|
A#|--0--0-0----3--3-3----33333-----2--------|
F#|--0--0-0----0--0-0----00000-----2--------|  
C#|--2--2-2----0--0-0----00000-----2--------|
G#|--2--2-2----0--0-0----22222-----0--------|
D#|--0--0-0----2--2-2----33333--------------|
	

[Chorus1]

 (Guitar1)
d#|------------------------------------------|
A#|------------------------------------------|
F#|---7777-7777--------7---------------------|
C#|---7777-7777---55---7--7777----(2x)-------|
G#|---5555-5555---55---5--7777---------------|
D#|---------------33------5555---------------|
	
 (Guitar2)
d#|--2-2-2-2--2-2-2-2---3-3---2---0-0-0-0----|
A#|--3-3-3-3--3-3-3-3---3-3---3---2-2-2-2----|
F#|--2-2-2-2--2-2-2-2---0-0---2---2-2-2-2----|  (2x)
C#|--0-0-0-0--0-0-0-0---0-0---0---2-2-2-2----|
G#|--0-0-0-0--0-0-0-0---2-2---0---0-0-0-0----|
D#|---------------------3-3------------------|
	

[Chorus2]

 (Guitar1)
d#|---------------------------------------------------------------------------|
A#|---------------------------------------------------------------------------|
F#|---------------------------------------------------------------------------|
C#|-------------2222-2222--7777-7777-----------2222-2222---7-7-7-7----5~------|
G#|-------------2222-2222--7777-7777-----------2222-2222---7-7-7-7----5~------|
D#|---(5-3-0)---0000-0000--5555-5555--(5-3-0)--0000-0000---5-5-5-5----3~------|

 (Guitar2)
d#|--0-0-0-0-0---0-0-0-0-----0-0-0-0-0---0-0-0-0------3~----------------------|
A#|--0-0-0-0-0---2-2-2-2-----0-0-0-0-0---2-2-2-2------3~----------------------|
F#|--0-0-0-0-0---2-2-2-2-----0-0-0-0-0---2-2-2-2------0~----------------------|  
C#|--2-2-2-2-2---2-2-2-2-----2-2-2-2-2---2-2-2-2------0~----------------------|
G#|--2-2-2-2-2---0-0-0-0-----2-2-2-2-2---0-0-0-0------2~----------------------|
D#|--0-0-0-0-0---------------0-0-0-0-0----------------3~----------------------|
	


-repeat Intro-



[Verse2]

 (Guitar2)
d#|----------------------------------------------------------------------------|
A#|---------------------------^^^^--^^^^--^^^^--^^^^---------------------------|
F#|-^^^^--^^^^--^^^^--^^^^----7777--7777--7777--7777----^^^^--^^^^--^^^^--^^^^-|
C#|-5555--5555--5555--5555----7777--7777--7777--7777----5555--5555--5555--5555-|
G#|-5555--5555--5555--5555----5555--5555--5555--5555----5555--5555--5555--5555-|
D#|-3333--3333--3333--3333------------------------------3333--3333--3333--3333-|


[Pre-chorus]

 (Guitar1)
d#|------------------------------------------|
A#|------------------------------------------|
F#|------------------------------------------|  
C#|--2--2-2----4--4-4----5--5-5-----7--7-7---|
G#|--2--2-2----4--4-4----5--5-5-----7--7-7---|
D#|--0--0-0----2--2-2----3--3-3-----5--5-5---|

d#|------------------------------------------|
A#|------------------------------------------|
F#|------------------------------------------|  
C#|-----------2--2-2---55555---7777777-------|
G#|-----------2--2-2---55555---7777777-------|
D#|--(5-3-0)--0--0-0---33333---5555555-------|


 (Guitar2)
d#|--0--0-0----3--3-3----3--3-3-----0--0-0---|
A#|--0--0-0----3--3-3----3--3-3-----2--2-2---|
F#|--0--0-0----0--0-0----0--0-0-----2--2-2---|  
C#|--2--2-2----0--0-0----0--0-0-----2--2-2---|
G#|--2--2-2----0--0-0----2--2-2-----0--0-0---|
D#|--0--0-0----2--2-2----3--3-3--------------|

d#|--0--0-0----3--3-3-----000000-------------|
A#|--0--0-0----3--3-3-----222222-------------|
F#|--0--0-0----0--0-0-----222222-------------|  
C#|--2--2-2----0--0-0-----222222-------------|
G#|--2--2-2----2--2-2-----000000-------------|
D#|--0--0-0----3--3-3------------------------|
	

-repeat Chorus1 & Chorus2-

------------------------------------------------------------------------------
[Bridge] Clean guitar

 (Guitar1)
d#|--0-0--2-2----3-3--3-3--0-0--0-0-----3-3--3-3--0-0--2-2--------------------|
A#|--0-0--3-3----3-3--3-3--0-0--2-2-----3-3--3-3--0-0--3-3--------------------|
F#|--0-0--2-2----0-0--0-0--0-0--2-2-----0-0--0-0--0-0--2-2--------------------|  
C#|--2-2--0-0----0-0--0-0--2-2--2-2-----0-0--0-0--2-2--0-0--------------------|
G#|--2-2--0-0----2-2--0-0--2-2--0-0-----2-2--0-0--2-2--0-0--------------------|
D#|--0-0---------3-3--2-2--0-0----------3-3--2-2--0-0-------------------------|
	
d#|--3-3--3-3--0-0---------------------|
A#|--3-3--3-3--0-0---2-2-x--2-2-x------|
F#|--0-0--0-0--0-0---2-2-x--2-2-x------|  
C#|--0-0--0-0--2-2---2-2-x--2-2-x------|
G#|--2-2--0-0--2-2---0-0-x--0-0-x------|
D#|--3-3--2-2--0-0---------------------|
	


[Before Solo Part]

 (Guitar1)				    
d#|---------------------------------------|
A#|---------------------------------------|
F#|--------------------7777---------------|
C#|--5555--5555--2222--7777----2222--4444-|
G#|--5555--5555--2222--5555----2222--4444-|
D#|--3333--2222--0000----------0000--2222-|

 (Guitar2)						   [Solo Part]
d#|--3333--3333--0000--2222----0000--3333--------|-3333--3333---0000--0000--------|
A#|--3333--3333--0000--3333----0000--3333--------|-3333--3333---2222--2222--------|
F#|--0000--0000--0000--2222----0000--0000---then-|-0000--0000---2222--2222--------|  
C#|--0000--0000--2222--0000----2222--0000--------|-0000--0000---2222--2222--(2x)--|
G#|--2222--0000--2222--0000----2222--0000--------|-2222--2222---0000--0000--------|
D#|--3333--2222--0000----------0000--2222--------|-3333--3333---------------------|


[Solo Part]

 (Guitar1)
d#|---------------------------------------------------------------------------------|
A#|---------------------------------------------------------------------------------|
F#|-7-7-7--/9-9-9--/11-11-11--/12-12-12----7-7-7--/9-9-9--/12-12-12--/11-11-11------|
C#|-x-x-x--/x-x-x--/-x--x--x--/-x--x--x----x-x-x--/x-x-x--/-x--x--x--/-x--x--x--(2x)|
G#|-5-5-5--/7-7-7--/-9--9--9--/10-10-10----5-5-5--/7-7-7--/10-10-10--/-9--9--9------|
D#|---------------------------------------------------------------------------------|


[Solo Part2] Not sure about this part but i think it's pretty close...  
 	     After this part...Jeff played some background solo (i can't figure it out)
 (Guitar1)
d#|---------------------------------------------------------------------------------|
A#|--------------------------------------------------------------------^^-^^--------|
F#|-9-9-9-/11-11-11-/12-12-12-/14-14-14-12-12-12-/14-14-14-/16-16-16-/18-18--19~---|  
C#|-x-x-x-/-x--x--x-/-x--x--x-/-x--x--x--x--x--x-/-x--x--x-/-x--x--x-/-x--x---x----|
G#|-7-7-7-/-9--9--9-/10-10-10-/12-12-12-10-10-10-/12-12-12-/14-14-14-/16-16--17~---|
D#|---------------------------------------------------------------------------------|

 (Guitar2)
d#|----00000----33333----33333---0000---------|
A#|----00000----33333----33333---2222--X-X----|
F#|----00000----00000----00000---2222--X-X----|  
C#|----22222----00000----00000---2222--X-X----|
G#|----22222----00000----22222---0000--X-X----|
D#|----00000----22222----33333----------------|


-repeat chorus1 & chorus2-

the rest u should know!!!!

------------------------------------------------------------------------------
Any comments or corrections,just mail me to Raptureboy182@yahoo.com/ICQ #115343571
Добавлено: 09.07.2012
Другие материалы по этой песне:

Страница создана 06.03.2012
http://primanota.ru/simple-plan/addicted-chords.htm
Привет, Гость.
Предлагаем пройти революционный курс по гитаре.
Подарок от PrimaNota.Ru, забирай!