PrimaNota.ru - самый крупный в мире бесплатный архив песенных текстов, аккордов, табулатур и нот


Simple Minds - Wonderful In Young Life - текст песни, бас-таба, видео

Регистрация Запомнить меня
Войти через:  Facebook Google Twitter Vk Yandex Mail.ru

Simple Minds - Wonderful In Young Life - текст песни, бас-таба, видео

Печатать
Просмотров: 82
Tabbed by: bassm99
E-mail: alanmatthews1966@yahoo.co.uk

Tuning: E, A, D, G

"Wonderful In Young Life" from the album "Sister Feelings Call" (1981)
Written by Simple Minds

Verse:

G|--------------------------------------------------------------------------|
D|--------------------------------------------------------------------------|
A|--7777777777777777----------------44--5555555555555555----------------22--|
E|--------------------77777777777777----------------------55555555555555----|

G|--------------------------------------------------------------------------|
D|--------------------------------------------------------------------------|
A|--3333333333333333--------------------------------------------------------|
E|--------------------------------------------------------------------------|

G|--------------------------------------------------------------------------|
D|--------------------------------------------------------------------------|
A|--7777777777777777----------------44--5555555555555555----------------22--|
E|--------------------77777777777777----------------------55555555555555----|

G|--------------------------------------------------------------------------|
D|--------------------------------------------------------------------------|
A|--3333333333333333--------------------------------------------------------|
E|--------------------------------------------------------------------------|

G|--------------------------------------------------------------------------|
D|--------------------------------------------------------------------------|
A|--7777777777777777----------------44--5555555555555555----------------22--|
E|--------------------77777777777777----------------------55555555555555----|

G|-----5--------------------------------------------------------------------|
D|--------------------------------------------------------------------------|
A|--33---(x8)---------------------------------------------------------------|
E|--------------------------------------------------------------------------|

Chorus:

G|-----5--------------------------------------------------------------------|
D|--------------------------------------------------------------------------|
A|--33---(x32)--------------------------------------------------------------|
E|--------------------------------------------------------------------------|

Repeat Verse:

Repeat Chorus:

Repeat Verse:

Repeat Chorus To End/Fade: (112 Times)

Добавлено: 17.12.2013
Другие материалы по этой песне:
  • Аккорды и текст

Страница создана 06.04.2012
http://primanota.ru/simple-minds/wonderful-in-young-life-chords.htm
Привет, Гость.
Предлагаем пройти революционный курс по гитаре.
Подарок от PrimaNota.Ru, забирай!