PrimaNota.ru - самый крупный в мире бесплатный архив песенных текстов, аккордов, табулатур и нот


Simple Minds - This Earth That You Walk Upon - текст песни, бас-таба, видео

Регистрация Запомнить меня
Войти через:  Facebook Google Twitter Vk Yandex Mail.ru

Simple Minds - This Earth That You Walk Upon - текст песни, бас-таба, видео

Печатать
Просмотров: 155
Уроки эстрадного вокала в Санкт-Петербурге
-------------------------------------------------------------------------------
			     THIS EARTH THAT YOU WALK UPON - Simple Minds
-------------------------------------------------------------------------------

Tabbed By : j.easby
e-mail: j.easby@ntlworld.com

Tuning: EADG

Classic song. Some great recent live version too (available on-line)

G|---------5----7-h5-------------------|
D|------7-------------7-5-7-5----------|
A|---5---------------------------------| X4
E|-------------------------------------|

G|---------3----5-h3-------------------|
D|-------5------------5-3-5-3----------| X4
A|----3--------------------------------|
E|-------------------------------------|



| /  slide up
| \  slide down
| h  hammer-on
| p  pull-off
| ~  vibrato
| +  harmonic
| x  Mute note
===============================================================================
Добавлено: 28.05.2012
Другие материалы по этой песне:
  • Аккорды и текст

Страница создана 28.05.2012
http://primanota.ru/simple-minds/this-earth-that-you-walk-upon-chords.htm
Привет, Гость.
Предлагаем пройти революционный курс по гитаре.
Подарок от PrimaNota.Ru, забирай!