PrimaNota.ru - самый крупный в мире бесплатный архив песенных текстов, аккордов, табулатур и нот


Simple Minds - Thirty Frames A Second - текст песни, бас-таба, видео

Регистрация Запомнить меня
Войти через:  Facebook Google Twitter Vk Yandex Mail.ru

Simple Minds - Thirty Frames A Second - текст песни, бас-таба, видео

Печатать
Просмотров: 90
Авторы музыки: Simple Minds
Авторы текста: Jim Kerr
-------------------------------------------------------------------------------
			     THIRTY FRAMES A SECOND - Simple Minds
-------------------------------------------------------------------------------

Tabbed By : j.easby
e-mail: j.easby@ntlworld.com

Tuning: EADG

Classic Forbes once again. Play with a pick!

G|----------12-h14---12-14-12------------------------|
D|---------------------------------------------------|
A|---12-12-------------------------------------------|
E|---------------------------------------------------|

Chorus, and some bits in-between, thrown in for good measure

G|----------12-h14-12-h14--------12-h14-12-h14-------|
D|---------------------------------------------------|
A|---12-12----------------12-12----------------------|
E|---------------------------------------------------|

G|---------12-h14---12-14-12-------------------------|
D|---------------------------------------------------|
A|---12-12-------------------------------------------|
E|---------------------------------------------------|



| /  slide up
| \  slide down
| h  hammer-on
| p  pull-off
| ~  vibrato
| +  harmonic
| x  Mute note
===============================================================================
Добавлено: 28.05.2012
Другие материалы по этой песне:
  • Аккорды и текст

Страница создана 08.04.2012
http://primanota.ru/simple-minds/thirty-frames-a-second-chords.htm
Привет, Гость.
Предлагаем пройти революционный курс по гитаре.
Подарок от PrimaNota.Ru, забирай!