PrimaNota.ru - самый крупный в мире бесплатный архив песенных текстов, аккордов, табулатур и нот


Simple Minds - Sad Affair - текст песни, бас-таба, видео

Регистрация Запомнить меня
Войти через:  Facebook Google Twitter Vk Yandex Mail.ru

Simple Minds - Sad Affair - текст песни, бас-таба, видео

Печатать
Просмотров: 101
Уроки эстрадного вокала в Санкт-Петербурге
Авторы музыки: Charlie Burchill, Jim Kerr
Авторы текста: Charlie Burchill, Jim Kerr
Tabbed by: bassm99
E-mail: alanmatthews1966@yahoo.co.uk

Tuning: E, A, D, G

"Sad Affair" from the album "Life In A Day" (1979)
Written by J.Kerr/C.Burchill

Bass Starts: 0:06

Intro: (Play Twice)

G|--------------------------------------------------------------------------|
D|----7-8-7-----------------------------------------------------------------|
A|--8-----------------------------------------------------------------------|
E|----------8---------------------------------------------------------------|

Verse: (Play 4 times)

G|--------------------------------------------------------------------------|
D|----8-7-------------------------------------------------------------------|
A|--8-----------------------------------------------------------------------|
E|--------8-----------------------------------------------------------------|

Chorus:

G|--------------------------------------------------------------------------|
D|--------------------------------------------------------------------------|
A|--88888888-88888888-88888888----------------------------------------------|
E|-----------------------------88888888-------------------------------------|

G|--------------------------------------------------------------------------|
D|--------------------------------------------------------------------------|
A|--88888888-88888888-88888888----------------------------------------------|
E|-----------------------------88888888-88888888-66666666-66666666----------|

G|--------------------------------------------------------------------------|
D|--------------------------------------------------------------------------|
A|--------------------------------------------------------------------------|
E|--55555555-33333333-------------------------------------------------------|

Verse:

G|--------------------------------------------------------------------------|
D|----7-8-7------------8-7--------------------------------------------------|
A|--8----------------8------------------------------------------------------|
E|----------8-(x1)---------8-(x7)-------------------------------------------|

Solo: (Play 4 Times)

G|--------------------------------------------------------------------------|
D|--------------------------------------------------------------------------|
A|--88888888-88888888-88888888----------------------------------------------|
E|-----------------------------88888888-------------------------------------|

Repeat Chorus:

Bridge:

G|--------------------------------------------------------------------------|
D|----8-7-------------------------------------------------------------------|
A|--8----------------------88888888-----------------------------------------|
E|--------8--8--8-8-(x4)------------8--8--8-8-(x4)--------------------------|

Repeat Chorus:

End:

G|--------------------------------------------------------------------------|
D|----7-8-7-----------------------------------------------------------------|
A|--8-------8---------------------------------------------------------------|
E|--------------------------------------------------------------------------|
Добавлено: 13.04.2016
Другие материалы по этой песне:
  • Аккорды и текст

Страница создана 30.04.2012
http://primanota.ru/simple-minds/sad-affair-chords.htm
Привет, Гость.
Предлагаем пройти революционный курс по гитаре.
Подарок от PrimaNota.Ru, забирай!