PrimaNota.ru - самый крупный в мире бесплатный архив песенных текстов, аккордов, табулатур и нот


Simple Minds - Room - текст песни, бас-таба, видео

Регистрация Запомнить меня
Войти через:  Facebook Google Twitter Vk Yandex Mail.ru

Simple Minds - Room - текст песни, бас-таба, видео

Печатать
Просмотров: 111
Уроки эстрадного вокала в Санкт-Петербурге
Авторы музыки: Simple Minds
Авторы текста: Jim Kerr
------------------------------------------------------------------------------
			     ROOM - Simple Minds
-------------------------------------------------------------------------------

Tabbed By : j.easby
e-mail: j.easby@ntlworld.com

Tuning: EADG

This is the Empire and Dance album version.
The live versions don't give the song any justice IMO.

G|------------------------------------------------------------|
D|------------------------------------------------------------|
A|--77--77--77--77--77--77--77--77--77--77--55--55------------|
E|--------------------------------------------------55--55----|

G|------------------------------------------------------------|
D|------------------------------------------------------------|
A|--77--77--77--77--55--55----------77--77--------------------|Miss a 77
E|--------------------------55--55----------------------------|before bridge

Bridge.....
G|------------------------------------------------------------|
D|------12~----12~----12~----12~---12~----12~-----------------|
A|--------77------77-----77------77-----77--------------------|vibe on twelve
E|------------------------------------------------------------|

G|--------------------------------------------------------------------|
D|-----------------------------5757---5757--5757----5757----5757------|
A|--77--77--77--77--77--77--77------77----77-----77------77-----------|
E|--------------------------------------------------------------------|

G|--------------------------------------------------------------------|
D|-----5757---5757----5757----5757-----5757----5757-------------------|
A|--55------55----------------------77------77------------------------| ETC..
E|-----------------55------55-----------------------------------------|




| /  slide up
| \  slide down
| h  hammer-on
| p  pull-off
| ~  vibrato
| +  harmonic
| x  Mute note
===============================================================================
Добавлено: 12.05.2012
Другие материалы по этой песне:
  • Аккорды и текст

Страница создана 12.05.2012
http://primanota.ru/simple-minds/room-chords.htm
Привет, Гость.
Предлагаем пройти революционный курс по гитаре.
Подарок от PrimaNota.Ru, забирай!