PrimaNota.ru - самый крупный в мире бесплатный архив песенных текстов, аккордов, табулатур и нот


Simple Minds - Real to Real - текст песни, бас-таба, видео

Регистрация Запомнить меня
Войти через:  Facebook Google Twitter Vk Yandex Mail.ru

Simple Minds - Real to Real - текст песни, бас-таба, видео

Печатать
Просмотров: 83
Авторы музыки: Simple Minds
Авторы текста: Jim Kerr
Tabbed by: bassm99
E-mail: alanmatthews1966@yahoo.co.uk

Tuning: E, A, D, G

"Real To Real" from the album "Real To Real Cacophony" (1979)
Written by Simple Minds

Bass Starts: 0:05

Verse: (Play 4 Times)

G|----9-------9-9----5------5-5----7------7-7----7------7-7-----------------|
D|--------------------------------------------------------------------------|
A|--7---7--7-------3---3--3------5---5--5------5---5--5---------------------|
E|--------------------------------------------------------------------------|

Bridge:

G|--------------------------------------------------------------------------|
D|--------------------------------------------------------------------------|
A|--6--6-6---6--6-6---8--8-8---8--8-8---------------------5--5-5---5--5-5---|
E|--------------------------------------8--8-8---8--8-8---------------------|

G|--------------------------------------------------------------------------|
D|--------------------------------------------------------------------------|
A|--6--6-6---6--6-6---8--8-8---8--8-8---------------------5--5-5---5--5-5---|
E|--------------------------------------8--8-8---8--8-8---------------------|

G|--------------------------------------------------------------------------|
D|--------------------------------------------------------------------------|
A|--5-----------------------------------------------------------------------|
E|--------------------------------------------------------------------------|

Bass Stops: (1:16 - 1:20)

Repeat Verse:

Bridge: (Play 4 Times)

G|--------------------------------------------------------------------------|
D|--11111111-11111----------------------------------------------------------|
A|----------------666-------------------------------------------------------|
E|--------------------------------------------------------------------------|

Verse:

G|----11------11-11----7------7-7----9------9-9----9------9-9---------------|
D|--------------------------------------------------------------------------|
A|--9----9--9--------5---5--5------7---7--7------7---7--7-----(x2)----------|
E|--------------------------------------------------------------------------|

G|----11------11-11----7------7-7-------------------------------------------|
D|--------------------------------------------------------------------------|
A|--9----9--9--------5---5--5-----(x3)--------------------------------------|
E|--------------------------------------------------------------------------|

End:

G|--------------------------------------------------------------------------|
D|--------------------------------------------------------------------------|
A|--7-----------------------------------------------------------------------|
E|--------------------------------------------------------------------------|

Добавлено: 13.04.2016
Другие материалы по этой песне:
  • Аккорды и текст

Страница создана 07.05.2012
http://primanota.ru/simple-minds/real-to-real-chords.htm
Привет, Гость.
Предлагаем пройти революционный курс по гитаре.
Подарок от PrimaNota.Ru, забирай!