PrimaNota.ru - самый крупный в мире бесплатный архив песенных текстов, аккордов, табулатур и нот


Simple Minds - League Of Nations - бас-таба, видео

Регистрация Запомнить меня
Войти через:  Facebook Google Twitter Vk Yandex Mail.ru

Simple Minds - League Of Nations - бас-таба, видео

Печатать
Просмотров: 81
Уроки эстрадного вокала в Санкт-Петербурге
Авторы текста: Jim Kerr
Tabbed by: bassm99
E-mail: alanmatthews1966@yahoo.co.uk

Tuning: E, A, D, G

"League Of Nations" from the album "Sister Feelings Call" (1981)
Written by Simple Minds

Intro:

G|--------------------------------------------------------------------------|
D|--------------------------------------------------------------------------|
A|--------------------------------------------------------------------------|
E|--0-0-0-0-0-0-0-0---------------------------------------------------------|

Verse Etc:

G|--------------------------------------------------------------------------|
D|-----------5-7------------------------------------------------------------|
A|------7-0-------7--5-7----------------------------------------------------|
E|--5-5---------------------------------------------------------------------|

End

G|--------------------------------------------------------------------------|
D|--------------------------------------------------------------------------|
A|--------------------------------------------------------------------------|
E|--5-----------------------------------------------------------------------|

Intro bassline plays all the way through the song.
Добавлено: 06.11.2013
Другие материалы по этой песне:
  • Аккорды и текст

Страница создана 06.11.2013
http://primanota.ru/simple-minds/league-of-nations-chords.htm
Привет, Гость.
Предлагаем пройти революционный курс по гитаре.
Подарок от PrimaNota.Ru, забирай!