PrimaNota.ru - самый крупный в мире бесплатный архив песенных текстов, аккордов, табулатур и нот


Simple Minds - Film Theme - бас-таба, видео

Регистрация Запомнить меня
Войти через:  Facebook Google Twitter Vk Yandex Mail.ru

Simple Minds - Film Theme - бас-таба, видео

Печатать
Просмотров: 79
Авторы музыки: Simple Minds
Авторы текста: Jim Kerr
Tabbed by: bassm99
E-mail: alanmatthews1966@yahoo.co.uk

Tuning: E, A, D, G

"Film Theme" from the album "Real To Real Cacophony" (1979)
Written by Simple Minds

Bass Starts: 0:11

Verse: (Play 4 Times)

G|--------------------------------------------------------------------------|
D|--------------------------------------------------------------------------|
A|--7-6-5-4-3-2-1-2---------------------------------------------------------|
E|--------------------------------------------------------------------------|

Bridge: (Play 4 Times)

G|--------------------------------------------------------------------------|
D|--------------------------------------------------------------------------|
A|--7-----3-----5---2-------------------------------------------------------|
E|--------------------------------------------------------------------------|

Verse: (Play 4 Times)

G|--------------------------------------------------------------------------|
D|--------------------------------------------------------------------------|
A|--7-6-5-4-3-2-1-2---------------------------------------------------------|
E|--------------------------------------------------------------------------|

End: (Fades Out)

G|--------------------------------------------------------------------------|
D|--------------------------------------------------------------------------|
A|--7-6-5-4-3-2-------------------------------------------------------------|
E|--------------------------------------------------------------------------|
Добавлено: 13.04.2016
Вам также может быть интересно:
Другие материалы по этой песне:
  • Аккорды и текст

Страница создана 13.04.2016
http://primanota.ru/simple-minds/film-theme-chords.htm
Привет, Гость.
Предлагаем пройти революционный курс по гитаре.
Подарок от PrimaNota.Ru, забирай!