PrimaNota.ru - самый крупный в мире бесплатный архив песенных текстов, аккордов, табулатур и нот


Simon Viklund - Time Window - таба, видео

Регистрация Запомнить меня
Войти через:  Facebook Google Twitter Vk Yandex Mail.ru

Simon Viklund - Time Window - таба, видео

Печатать
Просмотров: 332
Уроки эстрадного вокала в Санкт-Петербурге
-------------------------------------------------------------------------------
                             Time Window - Simon Viklund
-------------------------------------------------------------------------------
Tabbed by: Alfred
E-mail: affe1996@gmail.com

Tuning: Standard


Main guitar-part.
e|--------------------------------------------------------------------|
B|--------------------------------------------------------------------|
G|--------3-----5-----6-----5-----3h5-----5-----5-----3---------------|
D|------5-----5-----5-----5-----5-------5-----5-----5---5---6---6---5-|
A|----3-----3-----3-----3-----3-------3-----3-----3-------3---3---3---|
E|--------------------------------------------------------------------|


This is played in the background of the main guitar-part.
e|----------15-------15-------15-------15-------15----|
B|-------13-------13-------13-------13-------13----13-|
G|----12-------12-------12-------12-------12----------|
D|----------------------------------------------------|
A|----------------------------------------------------|
E|----------------------------------------------------|


Before this part just chug a C-note. Listen to the song for the rhythm.
e|-------------------------|
B|-------------------------|
G|-------------------------|
D|------5-4-3--------3-5---|
A|----3-------6-5-/5-----3-|
E|-------------------------|


This is played at the end of the previous part (the last time it is played).
Listen to the song to get it right.
e|------------------------|
B|------------------------|
G|------------------------|
D|----5p3----3p1----------|
A|--------3------1--1-1h3-|
E|------------------------|


This bass part is played through most of the song.
G|-------------------------|
D|-------------------------|
A|----3-3-3--1-3--1-3--3/6-|
E|-------------------------|


This bass-part comes in at about 1:55.
The notes arent played just once but this is the order of the tones.
G|---------------|
D|---------------|
A|----3--------3-|
E|-------4--6----|




************************************

| /   slide up
| h   hammer-on
| p   pull-off

************************************
Добавлено: 04.08.2015
Другие материалы по этой песне:
  • Аккорды и текст

Страница создана 04.08.2015
http://primanota.ru/simon-viklund/time-window-chords.htm
Привет, Гость.
Предлагаем пройти революционный курс по гитаре.
Подарок от PrimaNota.Ru, забирай!