PrimaNota.ru - самый крупный в мире бесплатный архив песенных текстов, аккордов, табулатур и нот


Simon Viklund - Tick Tock - таба, видео

Регистрация Запомнить меня
Войти через:  Facebook Google Twitter Vk Yandex Mail.ru

Simon Viklund - Tick Tock - таба, видео

Печатать
Просмотров: 137
Новый альбом группы 'Черный Кузнец' по культовому сериалу 'Сверхъестественное'!
-------------------------------------------------------------------------------
                             Tick Tock - Simon Viklund
-------------------------------------------------------------------------------
Tabbed by:Alfred
E-mail:affe1996@gmail.com

Tuning:Standard



This is the first bass-part, the other is just a c-note with some rhytm to it
G|------------------------------------|
D|------------------------------------|
A|--3--3--3--3--3-4--3--3--3--3--3-4--|
E|------------------------------------|


Here's the guitar-part that starts at 0:44  [palm-mute] 
e|-----------------------------------------------------|
B|-----------------------------------------------------|
G|-----------------------------------------------------|
D|-----------------------------------------------------|
A|--3--3-3-3-3-3--3--3-3-3-3-3--3--3-3-3-3-3--3-5-6-5--|
E|-----------------------------------------------------| 


1:10                            F#             F
e|-------------------------------------------------------------|
B|-------------------------------------------------------------|
G|------------------------------11-1111-111111-10-1010-101010--|
D|------------------------------x--x-x--x-x-x--x--x-x--x-x-x---|
A|--3--3-3-3-3-3--3--3-3-3-3-3--9--9-9--9-9-9--8--8-8--8-8-8---|
E|-------------------------------------------------------------|


e|------|
B|------|
G|--5\--|
D|--x---|
A|--3\--|
E|------| x4


These are a couple of the synth-parts, the other synth-parts are just variations of these.
e|------------------|
B|------------------|
G|--18p17----15h17--|
D|------------------|
A|--------15--------|
E|------------------|


e|-------------------------|
B|-------------------------|
G|-----17-17--17-17-17/18--|
D|-------------------------|
A|--15---------------------|
E|-------------------------|



************************************

| /   slide up
| \   slide down
| p   pull-off
| h   hammer-on
| x   Mute note

************************************

Добавлено: 30.09.2014
Другие материалы по этой песне:
  • Аккорды и текст

Страница создана 30.09.2014
http://primanota.ru/simon-viklund/tick-tock-chords.htm
Привет, Гость.
Предлагаем пройти революционный курс по гитаре.
Подарок от PrimaNota.Ru, забирай!