PrimaNota.ru - самый крупный в мире бесплатный архив песенных текстов, аккордов, табулатур и нот


Simon Viklund - Death Wish - таба, бас-таба, видео

Регистрация Запомнить меня
Войти через:  Facebook Google Twitter Vk Yandex Mail.ru

Simon Viklund - Death Wish - таба, бас-таба, видео

Печатать
Просмотров: 209
-------------------------------------------------------------------------------
                             Death Wish - Simon Viklund
-------------------------------------------------------------------------------
Tabbed by: [zortak6] ManticTalbot

Tuning: Standard 

 -Intro/Fill- (0:18)
e|----------------------|
B|----------------------|
G|-9-7------------------|
D|-----9-8-7-5----------|
A|-------------7\-------|
E|----------------------|

 -Main Rhythm- (0:00)
e|--------------------------------|
B|--------------------------------|
G|--------------------------------| (Play first 3 opens at fast tempo)
D|--------------------------------|
A|--------------------------7\----|
E|--0-0-0-3---0-5---0-6---0-------|

 -Solo/Lick- (1:14)
e|------------------|-----------------|
B|------------------|-----------------|
G|-/9~~-------------|-/7~~--7--7-7s9--|
D|-----7h8p7-5------|-----7--7--------|
A|------------7~~~--|-----------------|
E|------------------|-----------------|

 -Thing- (1:51)
e|---------------------------------------------------------|
B|---------------------------------------------------------|
G|---------------------------------------------------------|
D|---------------------------------------------------------|
A|-7-7-7-6-6-6-5-5-5-4-4-4-3-3-3-2-2-2-1-1-1---------------|
E|--------------------------------------------0-0-0-0-0-0--|


************************************

| /   slide up
| \   slide down
| h   hammer-on
| p   pull-off
| ~   vibrato
| +   harmonic
| x   Mute note
| b   Bend
| pb  Pre-bend
| br  Bend release
| pbr Pre-bend release
| brb Bend release bend

************************************
Добавлено: 19.12.2015
Другие материалы по этой песне:
  • Аккорды и текст

Страница создана 19.12.2015
http://primanota.ru/simon-viklund/death-wish-chords.htm
Привет, Гость.
Предлагаем пройти революционный курс по гитаре.
Подарок от PrimaNota.Ru, забирай!