PrimaNota.ru - самый крупный в мире бесплатный архив песенных текстов, аккордов, табулатур и нот


Simon Diaz - Romance En La Lejanía - бас-таба, видео

Регистрация Запомнить меня
Войти через:  Facebook Google Twitter Vk Yandex Mail.ru

Simon Diaz - Romance En La Lejanía - бас-таба, видео

Печатать
Просмотров: 30
Ahora con ustedes, y sin caer en el patrioterismo barato,
una de las mejores canciones interpretadas por el Tío
Simón Díaz. Esta misma salió en el mismísimo disco de donde
está el mítico "Caballo viejo". Espero les guste


Intro

G ----------------|---------------|-------------|---|
D -7--10-9-----7--|--7------------|---10--10-9--|-9-|
A ----------7-----|-----10--10-9--|-9-----------|---|
E ----------------|---------------|-------------|---|

G ---------------|---------|--------|------|
D ---------------|---------|--------|------|
A -----6-7-10-9--|---7--7--|--------|------|
E -7-9-----------|-7-------|-10--10-|-8--8-|

G ------|------|--------|------|---------------|----------|
D ------|------|--------|------|---------------|----------|
A ------|----7-|-10--10-|-9--9-|-----6-7-10-9--|---7-(2X)-|
E -7--7-|-5----|--------|------|-7-9-----------|-7--------|

G --------|
D -9------|
A ---10-7-|
E --------|

"Por un caminito verde, del palenque a la quesera..."

G -------|-----------|-----------|-----|---------|
D -----9-|----9-(2X)-|-----------|-----|-----6-7-|
A -7-9---|-7---------|-7---------|---9-|-7-9-----|
E -------|-----------|---10-8--8-|-7---|---------|

"En el oleaje del viento, mujer bonita me hiciste
que te dijera"...

G -----------|---------|--------|---------|
D -7-------9-|-9-7--7--|-10--10-|---9---9-|
A ----9--9---|---------|--------|-9---7---|
E -----------|---------|--------|---------|

G --------|
D -9------|
A ---10-7-|
E --------|

"Que mi amor se quedaría, o era nube pasajera..."

G -------|-----------|-----------|-----|---------|
D -----9-|----9-(2X)-|-----------|-----|-----6-7-|
A -7-9---|-7---------|-7---------|---9-|-7-9-----|
E -------|-----------|---10-8--8-|-7---|---------|

"Y que te dejara escrito, en mis canciones cuantas
cosas te ofreciera"...

G -----------|---------|--------|---------|
D -7-------9-|-9-7--7--|-10--10-|---9---9-|
A ----9--9---|---------|--------|-9---7---|
E -----------|---------|--------|---------|

"Te ofreciera mil bellezas naturales de mi tierra,
quien supiera de tu gusto para darte las más bellas..."

G -----|---------|-----------|--------|------|
D -9---|---------|-----------|--------|------|
A ---7-|---------|---------7-|-10--10-|-9--9-|
E -----|-10-8--8-|-7--7-5----|--------|------|

"Envueltas en mis cantares cuando el arpa me atropella..."

G --------|------|-----------------|------|
D -10--10-|-9--9-|---------------9-|------|
A --------|------|-----6-7-10-9----|-7--7-|
E --------|------|-7-9-------------|------|

"Te entrego mi corazón porque de amor está lleno,
y repleto de esperanza como boga y canoero..."

G -------------|-----------|--------|------|--------|------|
D -------------|-----------|--------|------|-10--10-|-9--9-|
A -------------|---------7-|-10--10-|-9--9-|--------|------|
E -10--10-8--8-|-7--7-5----|--------|------|--------|------|

"Como sediento que encuentra manantial en el estero".

G -----------------|------|
D ---------------9-|------|
A -----6-7-10-9----|-7--7-|
E -7-9-------------|------|


Puente


Vuelta 1:

G --------|------|------|------|--------|------|--------|------|
D --------|------|------|------|--------|------|-10--10-|-9--9-|
A --------|------|------|----7-|-10--10-|-9--9-|--------|------|
E -10--10-|-8--8-|-7--7-|-5----|--------|------|--------|------|

G -----------------|--------|
D ---------------9-|--------|
A -----6-7-10-9----|----7-7-|
E -7-9-------------|-7------|


Vuelta 2:

G --------|------|------|------|--------|------|--------|------|
D --------|------|------|------|--------|------|-10--10-|-9--9-|
A --------|------|------|----7-|-10--10-|-9--9-|--------|------|
E -10--10-|-8--8-|-7--7-|-5----|--------|------|--------|------|

G ----------|--------|
D ----------|-9------|
A ---7-(2X)-|---10-7-|
E -7--------|--------|


Versos (la misma secuencia. Varía un poco, pero se puede tocar
igual):

"Voy a ver si con un verso, puedo bajar una estrella...
que me hable de tus antojos, mujer bonita y no me
pierda tu huella" (bis)

"Me parece que adivino en tu mirada morena, que te
gusta el horizonte juguete de tolvanera.
Como juega tu sonrisa en tus labios de cayena.
Te mando mi corazón en un lirio sabanero
confundido en una garza con belleza de garcero
y el lirio con su fragancia me sembrará en
tu recuerdo".

Final:

G -----------|---|--------|
D -9---------|-9-|--------|
A -------9-7-|---|----9-7-|
E ----7------|---|-7------|

Recuerden oír la canción todas las veces necesarias pues cuesta
un poco agarrarle el ritmo pues es un poco rápida. Ojalá les guste.
Un abrazo. Hasta la próxima.
Добавлено: 14.03.2016
Другие материалы по этой песне:
  • Аккорды и текст

Страница создана 14.03.2016
http://primanota.ru/simon-diaz/romance-en-la-lejania-chords.htm
Привет, Гость.
Предлагаем пройти революционный курс по гитаре.
Подарок от PrimaNota.Ru, забирай!