PrimaNota.ru - самый крупный в мире бесплатный архив песенных текстов, аккордов, табулатур и нот


Simon Brading - There Is Dancing - таба, видео

Регистрация Запомнить меня
Войти через:  Facebook Google Twitter Vk Yandex Mail.ru

Simon Brading - There Is Dancing - таба, видео

Печатать
Просмотров: 53
-----------------------------------------------------------------
There Is Dancing - Simon Brading/Newday Band
-----------------------------------------------------------------
Tabbed by: PhAntomNewo64
Email: owenpetch@icloud.com

Tuning: EADGbe

Intro

e|------------------------------------------------------------------|
B|------------------------------------------------------------------|
G|------------------------------------------------------------------|
D|------------------------------------------------------------------|
A|--7-7--7-7--7-7--7-7--7-7--77-7--7-7--7-7--7--7-------------------|
E|--0-0--0-0--0-0--0-0--0-0--00-0--0-0--0-0--0--0-------------------|

Verse

e|---------------------------------------------------------------|
B|--------------------------------------------------12b----------|
G|---------------------------------------------------------------|
D|--------------------------------------------------------(x2)---|
A|--7-7--7-7--7-7--7-7--7-7--77-7--7-7--7-7--7-7-----------------|
E|--0-0--0-0--0-0--0-0--0-0--00-0--0-0--0-0--0-0-----------------|

(the 12b is only on the first time)

e|---------------------------------------------------------------|
B|---------------------------------------------------------------|
G|-------------------------9-------------------------------------|
D|-------------------------9----------(Let-Ring)-----------------|
A|-------------------------7-------------------------------------|
E|---------------------------------------------------------------|


Pre-Chorus

e|-----------------------------------------------------------------|
B|-----------------------------------------------------------------|
G|-----6-----6-----8-----6-----------------------------------------|
D|-----7-x5--6-x5--9-x5--6-x5--------------------------------------|
A|-----7-----4-----9-----4-----------------------------------------|
E|-----------------------------------------------------------------|

e|---------------------------------------------------------------|
B|---------------------------------------------------------------|
G|-----6-----9-----6-----7---------------------------------------|
D|-----7-x5--9-x5--6-x8--7-x8------------------------------------|
A|-----7-----7-----4-----5---------------------------------------|
E|---------------------------------------------------------------|

Chorus

e|---------------------------------------------------------------|
B|---------------------------------------------------------------|
G|-----7------9----------------9---------------------------------|
D|-----7-x3---9-x13---(x3)------9-x13----------------------------|
A|-----5------7----------------7---------------------------------|
E|---------------------------------------------------------------|

e|---------------------------------------------------------------|
B|---------------------------------------------------------------|
G|-----7------9--------------6--------9--------------------------|
D|-----7-x3---9-x13---(x2)----7-x16---9-x16----------------------|
A|-----5------7--------------7--------7--------------------------|
E|---------------------------------------------------------------|

Verse

e|---------------------------------------------------------------|
B|--------------------------------------------------12b----------|
G|---------------------------------------------------------------|
D|-------------------------------------------------------(x2)----|
A|--7-7--7-7--7-7--7-7--7-7--77-7--7-7--7-7--7-7-----------------|
E|--0-0--0-0--0-0--0-0--0-0--00-0--0-0--0-0--0-0-----------------|

(the 12b is only on the first time)

e|---------------------------------------------------------------|
B|---------------------------------------------------------------|
G|-------------------------9-------------------------------------|
D|-------------------------9----------(Let-Ring)-----------------|
A|-------------------------7-------------------------------------|
E|---------------------------------------------------------------|


Pre-Chorus

e|-----------------------------------------------------------------|
B|-----------------------------------------------------------------|
G|-----6-----6-----8-----6-----------------------------------------|
D|-----7-x5--6-x5--9-x5--6-x5--------------------------------------|
A|-----7-----4-----9-----4-----------------------------------------|
E|-----------------------------------------------------------------|

e|---------------------------------------------------------------|
B|---------------------------------------------------------------|
G|-----6-----9-----6-----7---------------------------------------|
D|-----7-x5--9-x5--6-x8--7-x8------------------------------------|
A|-----7-----7-----4-----5---------------------------------------|
E|---------------------------------------------------------------|

Chorus

e|---------------------------------------------------------------|
B|---------------------------------------------------------------|
G|-----7------9----------------9---------------------------------|
D|-----7-x3---9-x13---(x3)------9-x13----------------------------|
A|-----5------7----------------7---------------------------------|
E|---------------------------------------------------------------|

e|---------------------------------------------------------------|
B|---------------------------------------------------------------|
G|-----7------9--------------6--------9--------------------------|
D|-----7-x3---9-x13---(x2)----7-x16---9--------------------------|
A|-----5------7--------------7--------7--------------------------|
E|---------------------------------------------------------------|

Pre Dance Bit

e|---------------------------------------------------------------|
B|---------------------------------------------------------------|
G|---------------------------------------------------------------|
D|---------------------------------------------------------------|
A|-------7-7-7-7-7-7-7-7-----------------------------------------|
E|-------0-0-0-0-0-0-0-0-----------------------------------------|

Dance Bit

e|------------------------------------------------------------------|
B|------------------------------------------------------------------|
G|------------------------------------------------------------------|
D|------------------------------------------------------------------|
A|------765-7----------765-7--------------(x2)----------------------|
E|----0-------0-765-7-0------0-765-7--------------------------------|

Post Dance Bit

e|------------------------------------------------------------------|
B|------------------------------------------------------------------|
G|------------------------------------------------------------------|
D|--------------------------------------(x2)------------------------|
A|----7-7--7-7--7-7--7-7--7-7--77-7---------------------------------|
E|----0-0--0-0--0-0--0-0--0-0--00-0---------------------------------|


Verse

e|---------------------------------------------------------------|
B|--------------------------------------------------12b----------|
G|---------------------------------------------------------------|
D|--------------------------------------------------------(x2)---|
A|--7-7--7-7--7-7--7-7--7-7--77-7--7-7--7-7--7-7-----------------|
E|--0-0--0-0--0-0--0-0--0-0--00-0--0-0--0-0--0-0-----------------|

(the 12b is only on the first time)

e|---------------------------------------------------------------|
B|---------------------------------------------------------------|
G|-------------------------9-------------------------------------|
D|-------------------------9----------(Let-Ring)-----------------|
A|-------------------------7-------------------------------------|
E|---------------------------------------------------------------|


Pre-Chorus

e|-----------------------------------------------------------------|
B|-----------------------------------------------------------------|
G|-----6-----6-----8-----6-----------------------------------------|
D|-----7-x5--6-x5--9-x5--6-x5--------------------------------------|
A|-----7-----4-----9-----4-----------------------------------------|
E|-----------------------------------------------------------------|

e|---------------------------------------------------------------|
B|---------------------------------------------------------------|
G|-----6-----9-----6-----7---------------------------------------|
D|-----7-x5--9-x5--6-x8--7-x8------------------------------------|
A|-----7-----7-----4-----5---------------------------------------|
E|---------------------------------------------------------------|

Chorus

e|---------------------------------------------------------------|
B|---------------------------------------------------------------|
G|-----7------9----------------9---------------------------------|
D|-----7-x3---9-x13---(x3)------9-x13----------------------------|
A|-----5------7----------------7---------------------------------|
E|---------------------------------------------------------------|

e|---------------------------------------------------------------|
B|---------------------------------------------------------------|
G|-----7------9--------------6--------9--------------------------|
D|-----7-x3---9-x13---(x2)----7-x16---9--------------------------|
A|-----5------7--------------7--------7--------------------------|
E|---------------------------------------------------------------|

Rap

e|------------------------------------------------------------------|
B|------------------------------------------------------------------|
G|------------------------------------------------------------------|
D|------------------------------------------------------------------|
A|----7-7--7-7--7-7--7-7--7-7--77-7---------------------------------|
E|----0-0--0-0--0-0--0-0--0-0--00-0---------------------------------|

(Play for whole Rap)


Chorus

e|---------------------------------------------------------------|
B|---------------------------------------------------------------|
G|-----7------9----------------9---------------------------------|
D|-----7-x3---9-x13---(x3)------9-x13----------------------------|
A|-----5------7----------------7---------------------------------|
E|---------------------------------------------------------------|

e|---------------------------------------------------------------|
B|---------------------------------------------------------------|
G|-----7------9--------------6--------9--------------------------|
D|-----7-x3---9-x13---(x2)----7-x16---9--------------------------|
A|-----5------7--------------7--------7--------------------------|
E|---------------------------------------------------------------|


Pre Dance Bit

e|---------------------------------------------------------------|
B|---------------------------------------------------------------|
G|---------------------------------------------------------------|
D|---------------------------------------------------------------|
A|-------7-7-7-7-7-7-7-7-----------------------------------------|
E|-------0-0-0-0-0-0-0-0-----------------------------------------|

Dance Bit

e|------------------------------------------------------------------|
B|------------------------------------------------------------------|
G|------------------------------------------------------------------|
D|------------------------------------------------------------------|
A|------765-7----------765-7----------------------------------------|
E|----0-------0-765-7-0------0-765-7--------------------------------|

Repeat to End
Then
Randomly play

e|-------------------------------|
B|-------------------------------|
G|-------------------------------|
D|-------------------------------|
A|--------7-7-7-7-7-7-7----------|
E|--------0-0-0-0-0-0-0----------|
Добавлено: 14.10.2013
Вам также может быть интересно:
Другие материалы по этой песне:
  • Аккорды и текст

Страница создана 14.10.2013
http://primanota.ru/simon-brading/there-is-dancing-chords.htm
Привет, Гость.
Предлагаем пройти революционный курс по гитаре.
Подарок от PrimaNota.Ru, забирай!