PrimaNota.ru - самый крупный в мире бесплатный архив песенных текстов, аккордов, табулатур и нот


Simon And Garfunkel - Felling Groovy - таба, видео

Регистрация Запомнить меня
Войти через:  Facebook Google Twitter Vk Yandex Mail.ru

Simon And Garfunkel - Felling Groovy - таба, видео

Печатать
Просмотров: 46
Уроки эстрадного вокала в Санкт-Петербурге


                                 Simon and Garfunkel : Feeling Groovy




INTRO:

e|-------0---------------------------3---|
B|-----1------3---------1-------0--------|
G|----------0----0----0----0-------------|   2x spielen
D|---------------------------------------|
A|--3----3----2----2----0----0-----------|
E|--------------------------------3----3-|


1.Strophe:

e|-------0---------------------------3-----------0----------------------3---------|
B|-----1------3---------1-------0--------------1------3---------3--3--------------|
G|----------0----0----0----0------------------------0----0----0-------------------|  2x spielen und beim 2ten
D|---------------------------------------------------------------------------0----|  mal natürlich mit anderem
A|--3----3----2----2----0----0--------------3----3----2----2----0----0------------|  Text.
E|--------------------------------3----3----------------------------------3----3--|
    Slow down, you   you  move  too  fast.  You got to make  the  morning  last


Refrain:

e|-------0---------------------------3-----------0----------------------3---------|
B|-----1------3---------1-------0--------------1------3---------3--3--------------|
G|----------0----0----0----0------------------------0----0----0-------------------|  
D|---------------------------------------------------------------------------0----|  
A|--3----3----2----2----0----0--------------3----3----2----2----0----0------------|
E|--------------------------------3----3----------------------------------3----3--|
                                             Da da da da da da da, feeling groovy.

Alle anderen Strophen laufen nach dem selben Muster !.



Die Base Line:

eigentlich echt simpel, wird komplett vom daumen gepickt und läuft das ganze Lied durch.



e|---------------------------------------|
B|---------------------------------------|
G|---------------------------------------|
D|---------------------------------------|
A|--3----3----2----2----0----0-----------|  
E|--------------------------------3----3-|


Meldoie:

Beim Fingerpicking werden die unteren drei Seiten ausschließlich mit dem Daumen gepickt, die oberen drei werden 
von Zeige- Mittel- und Ringfinger gepickt.

e|---------------------------------------| Ringfinger
B|---------------------------------------| Mittelfinger
G|---------------------------------------| Zeigefinger
D|---------------------------------------| Daumen  
A|---------------------------------------| Daumen
E|---------------------------------------| Daumen

Akkorde, die während des Lieds mit der Linken Hand gegriffen werden, mit Takzeiten (4/4):

e|-----------|-----------|-----------|---------3-|
B|-1---------|--------3--|--1--------|-----------|
G|-----------|-----------|-----------|-----------|
D|-----2-----|-----------|-----------|-----------|   
A|---------3-|---2-------|-----------|---2-------| 
E|-----------|-----------|-----------|---------3-|
       C                                   G
       1           2           3           4

Wenn du die Base - Line mit dem Daumen Picken kannst, versuche ganz langsam die Melodie mit zu picken. Der Tab
gibt nicht genau den Abstand zwischen Bass Ton und Melodie Ton an, also hör am besten zwischen dem üben immer
wieder das Original, dann kommst du ganz leicht selber drauf, wie man das Lied spielt. Viel Spaß damit!

Wolfgang
Добавлено: 16.03.2016
Другие материалы по этой песне:
  • Аккорды и текст

Страница создана 16.03.2016
http://primanota.ru/simon-and-garfunkel/felling-groovy-chords.htm
Привет, Гость.
Предлагаем пройти революционный курс по гитаре.
Подарок от PrimaNota.Ru, забирай!