PrimaNota.ru - самый крупный в мире бесплатный архив песенных текстов, аккордов, табулатур и нот


Silvio Rodriguez - La Maza - таба, видео

Регистрация Запомнить меня
Войти через:  Facebook Google Twitter Vk Yandex Mail.ru

Silvio Rodriguez - La Maza - таба, видео

Печатать
Просмотров: 184
La Maza
Silvio Rodriguez
Circa 1975

2/4

----INTRO----

 Am                                       G#add6
|-------0------|---------|-------------|-0----------|
|-----1---1----|---------|-------5-----|---5---5----|
|---2-------0--|-2--0----|-----4---4---|-----4---4--|
|--------------|------3--|---2-------5-|------------|
|-0------------|---------|-------------|------------|
|--------------|---------|-4-----------|-4----------|

       G                   F#DimAdd6
|--------------|---------|-------------|-0----------|
|-------3------|---------|-------3-----|------3-----|
|-----0---0----|--0------|-----2---2---|----2---2---|
|---0-------0--|---3-2---|---3-------3-|--3-------3-|
|--------------|---------|-------------|------------|
|-3------------|---------|-2-----------|2-----------|


 F                        E7            E7aug  E7       F#DimAdd6
|--------------|--------|-------0------|--1-----0------|-------------|-0-|
|-------1------|--------|-----3---3----|----3-----3----|------3------|-3-|
|-----2---2----|--------|---1-------1--|------0-----1--|----2---2----|-2-|
|---3-------3--|-3-2-0--|--------------|---------------|--3-------3--|-3-|
|--------------|--------|--------------|---------------|-------------|---|
|-1------------|--------|-0------------|--0------------|2------------|-2-|

     E7*
|-------0-1p0---|
|-----0-------3-|
|---1-----------|
|---------------|
|---------------|
|-0-------------|

Am               G  F    E7       E7aug
|-------0------|-3--1--|--------0-1p0----|
|-----1---1----|-3--1--|------3-------3--|
|---2-------0--|-0--2--|----1---------1--|
|--------------|-0--3--|--------------3--|
|-0------------|-------|-----------------|
|--------------|-3--1--|--0--------------|

----VERSE----
(Keep Arpeggios)

Am                    G#add6
Si no creyera en la locura
G*                    F#DimAdd6
de la garganta del sinzonte
F                       E7
si no creyera que en el monte
F#DimAdd6                E7 - E7aug
se esconde el trino y la pavura


Si no creyera en la balanza
o en la razón del equilibrio
si no creyera en el delirio
si no creyera en la esperanza

Si no creyera en lo que agencio
si no creyera en mi camino
si no creyera en mi sonido
si no creyera... en mi silencio

---CHORUS-----
(Arpeggios)
            E - E7
¿Qué cosa fuera?..
            E - E7  Am
¿Qué cosa fuera la maza sin cantera?
 (strum)  G    F
Un amasijo hecho de

  E     Edim9
|-0---0-x-0---|-0---0-x-0---|
|-0---0-x-0---|-0---0-x-0---|
|-1---1-x-1---|-1---1-x-1---|
|-2---2-x-3p2-|-2---2-x-3p2-|
|-2---2-x-2---|-2---2-x-2---|
|-0---0-x-0---|-0---0-x-0---|x2

E - Edim9
cuerdas y tendones
E - Edim9
Un revoltijo de

  Am    Amadd4
|-0---0-x-0---|-0---0-x-0---|
|-1---1-x-3p1-|-1---1-x-3p1-|
|-2---2-x-2---|-2---2-x-2---|
|-2---2-x-2---|-2---2-x-2---|
|-0---0-x-0---|-0---0-x-0---|
|-------------|-------------|x2

carne con madera
Am - Amadd4  G    F      E - Edim9
Un instrumento sin mejores resplandores
E - Edim9         Am - Amadd4
Que lucecitas montadas para escena

          G   F    E-Edim9
¿Qué cosa fuera corazón, que cosa fuera?..
                   Am-Amadd4
¿Qué cosa fuera la maza sin cantera?

---Verse---
(Piano in)

Si no creyera en lo más duro
si no creyera en el deseo
si no creyera en lo que creo
si no creyera en algo puro

Si no creyera en cada herida
si no creyera en la que ronde
si no creyera en lo que esconde
hacerse hermano de la vida

Si no creyera en quién me escucha
si no creyera en lo que duele
si no creyera en lo que quede
si no creyera en lo que lucha

---CORO---

¿Qué cosa fuera?..
¿Qué cosa fuera la maza sin cantera?

Un amasijo hecho de cuerdas y tendones
Un revoltijo de carne con madera
Un instrumento sin mejores resplandores
Que lucecitas montadas para escena

¿Qué cosa fuera corazón, que cosa fuera?..
¿Qué cosa fuera la maza sin cantera?

Un testaferro del traidor de los aplausos
Un servidor de pasado en copa nueva

¿Qué cosa fuera corazón, que cosa fuera?..
¿Qué cosa fuera la maza sin cantera?

Un eternizador de dioses del ocaso
Júbilo hervido con trapo y lentejuela

¿Qué cosa fuera corazón, que cosa fuera?..
¿Qué cosa fuera la maza sin cantera?

¿Qué cosa fuera corazón, que cosa fuera?..
¿Qué cosa fuera la maza sin cantera?


----------
The Rhythm is a traditional Trova rhythm:

(beats)  |    |    |    |

	 |  V | V  |  V | V
	 |  | | |  |  | | |
	 V  | X |  V  | X |

| = Strum Down   V  = Strum up
|                |
V                |

|
|
X = Silent Strum
Добавлено: 07.05.2012
Другие материалы по этой песне:

Страница создана 05.04.2012
http://primanota.ru/silvio-rodriguez/la-maza-chords.htm
Привет, Гость.
Предлагаем пройти революционный курс по гитаре.
Подарок от PrimaNota.Ru, забирай!