PrimaNota.ru - самый крупный в мире бесплатный архив песенных текстов, аккордов, табулатур и нот


Silvio Rodrguez - Vivo En Un País Libre - таба, видео

Регистрация Запомнить меня
Войти через:  Facebook Google Twitter Vk Yandex Mail.ru

Silvio Rodrguez - Vivo En Un País Libre - таба, видео

Печатать
Просмотров: 45
ahi esta el tab del tema , igual es como lo basico pero si le
ponemos style suena weno weno weno...


e:-----------------------------------------------------------------------------|
B:----0----0-----------7----7-------7----6--------6------3------------1-1------|
G:----0----0-----5-----5------5---5---5-----4----4--4----1------------2-2------|
D:------------------7-----------7-------------6--------------2-0---------------|
A:------2------6---------6---------------5-------------2---------3-2-0-------0-|
E:-0----------------------------------------------------------------------0-3--|


e:--------------------------0---0----------------------------------------------|
B:-1---1--1---0--0--0--0---0---3---1---3--1-1-1---0----0-----0---0-1-0---------|
G:-2---2--2---2--2--2--2--0---0---0---0---2-2-2---2----2-----0--0---0----------|
D:-----------------------2---0---2---0--------------------0h2--2---------------|
A:--------------2----2----------3---2---0----------0h2-------------0-2---------|
E:---3------2------2-------------------------3--2--------0----0----------------|

Despues se repite , y al final de la segunda vuelta hace algo asi ....


e:----0---0--------------------------------------------------------------------|
B:---0---3----1---3---1---1--0---0------3-------------1-1----1--0-0-0-0-0-0-0--|
G:--0---0----0---0---2----2--2---2--1--1-1-1----------2-2----2--0-0-0-0-0-0-0--|
D:-2---0----2---0---2-----------------3---3--2-0-------------------------------|
A:---------3---2---0----------0h2--2----2-------3-2-0-------0-3--2---2---2-----|
E:---------------------3----2----------------------------0-3---0---0---0-------|


e:-----------------------------------------------|
B:---0--0--0--0------0---0-1--0------------------|
G:---0--0--0--0------0--0---0-------0------------|
D:----------------0h2--2--------1--2-------------|
A:----2-----0-------------0---2------------------|
E:-2-----2------0-----0-----------0--------------|

vivo en un pais libre,
cual solamente puede ser libre
en esta tierra y en  este instante
y soy feliz porque soy gigante

amo a una mujer clara ...........


Espero que les  alla gustado , cualquie duda escribanme

cristian_mcv@
Добавлено: 10.04.2016
Вам также может быть интересно:
Другие материалы по этой песне:
  • Аккорды и текст

Страница создана 10.04.2016
http://primanota.ru/silvio-rodrguez/vivo-en-un-pais-libre-chords.htm
Привет, Гость.
Предлагаем пройти революционный курс по гитаре.
Подарок от PrimaNota.Ru, забирай!