PrimaNota.ru - самый крупный в мире бесплатный архив песенных текстов, аккордов, табулатур и нот


Silvio Rodrguez - Oleo De Mujer Con Sombrero - таба, видео

Регистрация Запомнить меня
Войти через:  Facebook Google Twitter Vk Yandex Mail.ru

Silvio Rodrguez - Oleo De Mujer Con Sombrero - таба, видео

Печатать
Просмотров: 78
Oleo de Mujer con Sombrero
Silvio Rodriguez

----INTRO-----

   C              Dm                  Em (Em7)      F     G
|----0--0-------|------1--1p0-------|-------|-0---|------|------|-----1----------------|
|-1--------1----|----3---------3----|----0--3--0--|----1-|----0-|----0-0------0-----0--|
|--0--0---0--0--|---2---0-----2--2--|---0-------0-|---2--|---0--|-0h2---2----0-0---0---|
|-------------2-|-0-------0-------0-|--2--2--2----|------|------|---------0h2---2-0--0-|
|-3-----3-------|-------------------|-------------|------|------|----------------------|
|---------------|-------------------|-0-----0-----|-1----|-3----|-3-------3-------3----|


  C              Dm                  Em (Em7)      F     G        G7
|--------0------|------1--1p0-------|-------|-0---|------|------|-----1----------------|
|-----1----1----|----3---------3----|----0--3--0--|----1-|----0-|----0-0------0-----0--|
|---(0)---0--0--|---2---0-----2--2--|---0-------0-|---2--|---0--|-0h2---2----0-0---0---|
|--2---0------2-|-0-------0-------0-|--2--2--2----|------|------|---------0h2---2-0--0-|
|-3------3------|-------------------|-------------|------|------|----------------------|
|---------------|-------------------|-0-----0-----|-1----|-3----|-3-------3-------3----|

-----VERSE 1----
(Arpeggios)

 C              Dm                
Una mujer se ha perdido             
  Em (Em7)            F
conocer el delirio y el polvo    
      G                C
Se ha Perdido esa  bella locura
     F       Dm     E      Am
su breve cintura debajo de mi
          F       G        (C - B- Am - G)
se ha perdido mi forma de amar
          F      G  -  G7
se ha perdido mi huella en su mar.

(C - B - Am - G:

|------|------|------|------|
|----1-|----1-|----1-|----1-|
|---0--|---2--|---2--|---2--|
|--2---|--0---|--2---|--2---|
|-3----|-2----|-0----|------|
|------|------|------|-3----|)

-----VERSE 2----

Veo una luz que vacila
y promete dejarnos a oscuras
veo un perro ladrando a la luna
como otra figura que recuerda a mi
veo mas veo que no me hallo
veo mas veo que se perdio.

-----VERSE 3----

La cobardia es asunto
de los hombres no de los amantes
los amores cobardes no llegan
a amores ni a historias se quedan ahi
ni el recuerdo los puede salvar
ni el mejor orador conjugar.

-----VERSE 4----

Una mujer innombrable
huye como una gaviota
y yo rapido seco mis botas
blasfemo una nota y apago el reloj
que me tenga cuidado el amor
que le puedo cantar su cancion.

-----VERSE 5----

Una mujer con sombrero
como un cuadro del viejo Chagall
corrompiendose al centro del miedo
y yo que no soy bueno me puse a llorar
pero entonces lloraba por mi
y ahora lloro por verla morir.

-----END----

  C     C/B     Am     Am/G    F      G       C(strum)
|------|------|------|-------|------|--------|-0-|
|----1-|----1-|----1-|---1---|---1--|--0p1---|-1-|
|---0--|---2--|---2--|----2--|----2-|-----0--|-0-|
|--2---|--0---|--2---|--2----|--3---|------0-|-2-|
|-3----|-2----|-0----|-------|------|--------|-3-|
|------|------|------|-3-----|-1----|-3------|---|

Добавлено: 09.05.2016
Другие материалы по этой песне:

Страница создана 09.05.2016
http://primanota.ru/silvio-rodrguez/oleo-de-mujer-con-sombrero-chords.htm
Привет, Гость.
Предлагаем пройти революционный курс по гитаре.
Подарок от PrimaNota.Ru, забирай!