PrimaNota.ru - самый крупный в мире бесплатный архив песенных текстов, аккордов, табулатур и нот


Silvio Rodrguez - Ojalá - аккорды и текст, таба, видео

Регистрация Запомнить меня
Войти через:  Facebook Google Twitter Vk Yandex Mail.ru

Silvio Rodrguez - Ojalá - аккорды и текст, таба, видео

Печатать
Просмотров: 88
Ojalá
Silvio Rodrguez
  "Ojalá"

  Silvio Rodriguez

Acordes:
  C*-Em*-A*-Dm*-Fm*-G*-C#m-Bm-Bm/A-F#-E-Esus-Dm-Dm/C-#1-A-Am-F-G
e)8---7--5--5---8---3---4--2---2---2--0--0---1---1---0--0-0--1-3
B)8---8--5--6---9---3---5--3---3---2--0--0---3---3---3--2-1--1-3
G)9---9--6--7---10--4---6--4---4---3--1--2---2---2---0--2-2--2-0
D)10--9--7--7---10--5---6--4---4---4--2--2---0---0---x--2-2--3-0
A)10--7--7--5---8---5---4--2---0---4--2--2---x---3---1--0-0--3-2
E)8---x--5--x---x---3---x--x---x---2--0--0---x---x---x--x-x--1-3

Intro:

e-------10------------9-------------8-----
B-----10--10--------10-10--------10--10---   Y se repite
G---10------10----10-----10----10------10-
D--0-------------0------------0-----------
A-----------------------------------------
E-----------------------------------------

1>Ojalá que las hojas no te toquen el cuerpo cuando caigan
[C*]para que no las puedas convertir en cris[intro]tal

2>[Em*]Ojalá que la [A*]lluvia deje de ser mi[Dm*]lagro 
que [C#m]baja por tu [Bm]cuerpo.[Bm/A]

3>[A*]Ojalá que la [G*]luna [F#]pueda salir sin [Bm]tí.[Bm/A][E][Esus]
[Dm]Oja[Dm/C]lá que la [#1]tierra no te [A]bese los [intro]pasos.

Ojalá se te acabe la mirada cons[C*]tante, 
la palabra precisa, la sonrisa per[Fm*]fecta.

Ojalá pase [G*]algo que te borre de [C]pronto 
una [E]luz cega[Am]dora, un dis[C]paro de [F]nieve

Ojalá por lo [G]menos que me lleve la [C]muerte
para [E]no verte [Am]tanto para [C]no verte [F]siempre
en todos los [intro]segundos 
en todos los vi[C*]siones
[Fm*]Ojalá que no [G*]pueda tocarte ni en can[intro]ciones.

1>Ojalá que la aurora nadé gritos que caigan 
en mi espalda.
Ojalá que tu nombre se le olvide a esa voz.

2>Ojalá las paredes no retengan tu ruido 
de camino cansado.

3>Ojalá que el deseo se vaya tras de tí
a tu viejo gobierno de difuntos y flores.

Ojalá se te acabe...
Добавлено: 07.04.2016
Другие материалы по этой песне:

Страница создана 07.04.2016
http://primanota.ru/silvio-rodrguez/ojala-chords.htm
Привет, Гость.
Предлагаем пройти революционный курс по гитаре.
Подарок от PrimaNota.Ru, забирай!