PrimaNota.ru - самый крупный в мире бесплатный архив песенных текстов, аккордов, табулатур и нот


Silvio Rodrguez - Introducciones - таба, видео

Регистрация Запомнить меня
Войти через:  Facebook Google Twitter Vk Yandex Mail.ru

Silvio Rodrguez - Introducciones - таба, видео

Печатать
Просмотров: 75
 sacadas por bastian bascuñan

  intro: compañera   (silvio rodriguez) album:'silvio


 |------------5-2-----------------------------------0----------------------------
 |----------5-----------2p3h2---------0p2h0---0---------3----------------0p2-3---
 |--------6-----------2--------------2------2-----2*------2*--2*-------2---------
 |------7-----------4--------------2------------------------0*-------2-----------
 |----------------5-----------0----------------------------------0---------------
 |-5------------2-------------------------------2--------------------------------

  ---------------------------------------------------------------------------
  -------3---3*--2-0p2h0---0---------------------0p2h0---0-------------------
  ---2---2-2-------2-----2-----2-------2--------2------2-----2---------2-----
  -----4---0---------------------0---4---4-----2---------------0-----4---4---
  -------------0---------------------------0---------------------------------
  -2*------------------------2*----------------------------2*----------------

  -----------------------0--|
  --------0p2h0---0---------|
  -------2------2-----2*----|
  -----2--------------------|
  -0------------------------|
  ------------------2-------|


 |-------------------------------------------------------------------------------------|


  intro:quien fuera  (silvio rodriguez) album:'silvio'


 |-------------------------------------------------------------------------------
 |--------3--------3--------------------3-----3-------------------3------3-------
 |------------------------------2-------------------------2------------------0*--
 |----4-5------4-5---5-4--2-2---0---4-5---4-5---5-4--2-2--0---4-5----4-5---5-----
 |----------------------------------------------------------3--------------------
 |-3---------3---------0----------3---------------0-------2----------------------

  ----------------------------------------0--------2------------2--h0-----
  ---------3------3h*0*-------3-----3---3-------3*----3*------3-------3---
  ---0*---------------------0-----0---0------0*-------------0-----0-------
  -----4-5----4-5---------4-----4---------------------------------------
  -0--------------------2--------------------------------3---------------
  ----------------------------------------------------------------------

  -3-2-0p2h0p2----------|
  -----------3---0------|
  -------------2---0----|
  -0--------------------|
  ----------------------|
  -----------------3----|

 |-------------------------------------------------------------------------------------|

  intro:con diez años menos  (silvio rodriguez) album:rabo de nube


 |-----0---0-----0--3h2-2h0-------------------------1-1h0-0---------------
 |-------1---1p3------------3-----------1-1-1-1-1-1---------3---1h0-------
 |---0------------------------2*-------2----------------------------0-----
 |---------2--------0-----------0*------------------------------------0---
 |-3------------------------------0*----------3-------2-------------------
 |-----------------------------------1------------------------3-----------


 |---------------0-0---------------------------------------------0---0-----|
 |-----0---0---0-----3-3h1-1h0-------------------3-3-1-1h0-0---0-----1-----|
 |---0---0---0-----------------2-----2-2-2-2-2-2-------------0-------0-----|
 |-------------------------------2-----------------------------------2-----|
 |-----------------0-------------------------------------------------3-----|
 |-0-------------------------------1-------2-------3-----------------------|


 |----------------------------------------------------------------------------------|


  intro:en estos dias (silvio rodriguez) album:mujeres


 |-------8-8-----8-8-----8-8-----------5-----5-----5-----5-5------------
 |-----8-------8-------8-------7-----------5-----5-----5-------4--------
 |---0-------0-------0-------5---5-4-----0-----0-----0-------2---2-4----
 |-------------------------0--------------------------------------------
 |-----------------0-----------------0---------------------2------------
 |-8-------7---------------------------------3-----2--------------------


  ---3-----3-----3-----3-3-----3-3---0---7---5---3---2---0p2p3------
  -------3-----3-----3-------3-----------5---------------------3----
  -----0-----0-----0-------0-------0---0-5-5---5---2---2---------2--
  ---------0-----------------------------5-------0------------------
  ---------------2-------2-------0----------------------------------
  -0*---------------------------------------------------------------

  -3-------3-----------|
  -----3-------3-------|
  ---0---0---0---0-----|
  ---------0-----------|
  ---------------------|
  -3-------------------|

 |--------------------------------------------------------------------------------------|


  intro:tocando fondo (silvio rodriguez) album:rodriguez


 |---5--------5/3---3--------3h0*---1--------1-------0------0------
 |-------0--------------1---------------1----------------1----1----
 |-----0----0---------0----0----------2----2---2**-----0-----------
 |-3--------------2---------------0--------------------------------
 |-------------------------------------------------3---------------
 |-----------------------------------------------------------------


  -----------0---------------0----0----------------------------------
  -------3-------3-------3----------3-----1------0**--0--------------
  -----2---2---2**-----1---1---1*-------2----2*-------------2--------
  ---3---------------2----------------2--------2*---------3---3*-----
  -2--------------------------------0-------------------3------------
  -----------------0----------------------------------1--------------


  -1-3/5----5------|
  -----------------|
  -----------------|
  --------3--------|
  -----------------|
  -----------------|

  |--------------------------------------------------------------------------------|


   intro:locuras (silvio rodriguez) album:oh melancolia


 |-0-0-0---------------0-0-0---------------0-0-0------------------
 |-----------2---3---------------2---3---------------2---3--------
 |---------2----2----2---------2----2----2---------2----2----2**--
 |-------2---------0---------2---------0---------2---------0------
 |-----0-------------------0-------------------0------------------
 |-------------2-------------------2-------------------2----------


  -0-0-0---------------|
  ---------5-----5-----|
  -----------4-----4---|
  -------0-----6-------|
  ---------------------|
  -----4---------------|
Добавлено: 09.05.2016
Другие материалы по этой песне:
  • Аккорды и текст

Страница создана 09.05.2016
http://primanota.ru/silvio-rodrguez/introducciones-chords.htm
Привет, Гость.
Предлагаем пройти революционный курс по гитаре.
Подарок от PrimaNota.Ru, забирай!