PrimaNota.ru - самый крупный в мире бесплатный архив песенных текстов, аккордов, табулатур и нот


Silversun Pickups - Little Lovers So Polite - таба, бас-таба, видео

Регистрация Запомнить меня
Войти через:  Facebook Google Twitter Vk Yandex Mail.ru

Silversun Pickups - Little Lovers So Polite - таба, бас-таба, видео

Печатать
Просмотров: 136
G: e----- D: e----- F#: e----- E: e-----|
   B-----    B-----     B-----    B-----|
   G-----    G--7--     G-----    G-----|
   D--5--    D--7--     D--4--    D--2--|
   A--5--    A--5--     A--4--    A--2--|
   D--5--    D--0--     D--4--    D--2--|


e--------------------------------------------------------------------|
B--------------------------------------------------------------------|
G--9-9-7-7-6-6-4-4-6-6-4-4-6-6-7-7-9-9-7-7-6-6-4-4-6-6-4-4-6-6/7\6-7-|
D--------------------------------------------------------------------|
A--------------------------------------------------------------------|
D--------------------------------------------------------------------| Repeat 2 times.

G
   So much for the light show
D
   Pissin' on while pissin' off
G
   Suckin' in a smokescreen
D
   Sellin' of a loose nit dream

e--------------------------------------------------------------------|
B--------------------------------------------------------------------|
G--9-9-7-7-6-6-4-4-6-6-4-4-6-6-7-7-9-9-7-7-6-6-4-4-6-6-4-4-6-6/7\6-7-|
D--------------------------------------------------------------------|
A--------------------------------------------------------------------|
D--------------------------------------------------------------------| Repeat 2 times.

G
   Foldin' up the skyline
D
   Agreein' on a steep decline
G
   Can't control this airplane
D
   Bein' caught is just the same
G
   Headed for a lowlife
D
   Little lover's so polite
G
   Wakin' up the core needs
D
   With smelly salts and faulty means

e--------------------------------------|
B--------------------------------------|
G--9-9-7-7-6-6-4-4-6-6-4-4-6-6-7-7-9-9-|
D--------------------------------------|
A--------------------------------------|
D--------------------------------------|
                     Did the bones collide?

e--------------------------------------|
B--------------------------------------|
G--9-9-7-7-6-6-4-4-6-6-4-4-6-6-7-7-9-9-|
D--------------------------------------|
A--------------------------------------|
D--------------------------------------|
                     Who let the bones collide?

e--------------------------------------------------------------------|
B--------------------------------------------------------------------|
G--9-9-7-7-6-6-4-4-6-6-4-4-6-6-7-7-9-9-7-7-6-6-4-4-6-6-4-4-6-6/7\6-7-|
D--------------------------------------------------------------------|
A--------------------------------------------------------------------|
D--------------------------------------------------------------------|
                     Why did the bones collide?

G      F#       E                F#
It's always the same way for me
G      F#     E
Ending in the same way.

G
   So much for the showdown
D
   Keepin' up while keepin' off
G
   Chokin' on the cold feet
D
   Rollin' up the plastic sleeves
G
   Can't control the slow ride
D
   Little lover's so polite
G
   Turnin' off the low light
D                            G
   Tell me did the bones collide
   The bones collide
                 D
   The bones collide
                        G
   Little lover's so polite
   So polite
         D
   So polite
   Turnin' off the low light

G    F#         E
It's always the same way for me
G          F#        E
Blue turns soft with time
G         F#      E
Broke remains, an everyday disguise
G      F#     E
Ending in the same way, the same way

Solo:
e-----------------------------------------|
B-----------------------------------------|
G--------------------4-2------2---2-------|
D---------------------------4---4---4-2---|
A--2h5-5---2h5-7-2h5--------------------5-|
D-----------------------------------------|

e-----------------------------------------|
B-----------------------------------------|
G--------------------4-2------2-0h2-4-2-4-|
D---------------------------4-------------|
A--2h5-5---2h5-7-2h5----------------------|
D-----------------------------------------|

e-----------------------------------------------|
B-----------------------------------------------|
G--4p2--------------4p2----0h4-7-4-----2----2---|
D-----4p2--0h2p0-0-----4p2-----------4----4-----|
A--------5------2---------5-------------------5-|
D-----------------------------------------------|

e-----------------------------------------------|
B-----------------------------------------------|
G--4p2--------------4p2----0h4-7-4-----2----2-4-|
D-----4p2--0h2p0-0-----4p2-----------4----4-----|
A--------5------2---------5---------------------|
D-----------------------------------------------|

e--------------------------------------------------------------------|
B--------------------------------------------------------------------|
G--9-9-7-7-6-6-4-4-6-6-4-4-6-6-7-7-9-9-7-7-6-6-4-4-6-6-4-4-6-6/7\6-7-|
D--------------------------------------------------------------------|
A--------------------------------------------------------------------|
D--------------------------------------------------------------------| Repeat 4 times.

                          G
Tell me did the bones collide
Bones collide
          D
Bones collide
                     G
Little lover's so polite
So polite
      D
So polite


I think that's it. Tell me anything that's wrong with it, and I'll try to change it. 
song is so badass.
Добавлено: 01.10.2013
Другие материалы по этой песне:

Страница создана 21.06.2013
http://primanota.ru/silversun-pickups/little-lovers-so-polite-chords.htm
Привет, Гость.
Предлагаем пройти революционный курс по гитаре.
Подарок от PrimaNota.Ru, забирай!