PrimaNota.ru - самый крупный в мире бесплатный архив песенных текстов, аккордов, табулатур и нот


Silversun Pickups - Broken Bottles - таба, видео

Регистрация Запомнить меня
Войти через:  Facebook Google Twitter Vk Yandex Mail.ru

Silversun Pickups - Broken Bottles - таба, видео

Печатать
Просмотров: 97
Drop D Tuning
Intro
e-----------------------------------------------------------------------------|
b-----------------------------------------------------------------------------|
g-----------------------------------------------------------------------------|
d-----------------------------------------------------------------------------|
a-----------------------------------------------------------------------------|
d-777777777777777777777777-3333333333333333-0000000000000000-5555555555555555-|

e---------------------------------|
b---------------------------------|
g---------------------------------|
d-----7-----7-----7-----7---7---7-|
a---7-----7-----7-----7-----------|
d-7-----7-----7-----7-----7---7---|

Synth
e----------------------10-9-7-------------|
b-------8-----10-8------------10-8---10-8-|
g---9-----9------------------------9------|
d-7---7-----7-----------------------------|
a-----------------------------------------|
d-----------------------------------------|

e-------------7-----------15--------------|
b-------8-------10------------15-14-12----|
g---9-----9------------14--------------14-|
d-7---7-----7-----------------------------|
a-----------------------------------------|
d-----------------------------------------|


Verse
e-------------------------------------------------------------|
b-------------------------------------------------------------|
g-------------------------------------------------------------|
d-777777777777-5h777777777777-5h777777777777-5h777777777777-5-|
a-777777777777-5h777777777777-5h777777777777-5h777777777777-5-|
d-777777777777-5h777777777777-5h777777777777-5h777777777777-5-|

Chorus
e--------------------------------------------|
b--------------------------------------------|
g--------------------------------------------|
d-3333333333333333-00000000-5555555555555555-|
a-3333333333333333-00000000-5555555555555555-|
d-3333333333333333-00000000-5555555555555555-|

Fills
e-----------------------------------------------------------------------------|
b-----------------------------------------------------------------------------|
g-----------------------------------------------------------------------------|
d-777777777777777777777777-3333333333333333-0000000000000000-5555555555555555-|
a-777777777777777777777777-3333333333333333-0000000000000000-5555555555555555-|
d-777777777777777777777777-3333333333333333-0000000000000000-5555555555555555-|

Solo
Lead
e-------------------------------------------------------------------|
b-------------------------------------------------------------------|
g---------------------------------------------------10-10-9-9-------|
d----10h12-12-----10-10h12-10-----10-10h12-12-10-12-----------12-12-|
a-12-----------12--------------12-----------------------------------|
d-------------------------------------------------------------------|

e-------------------------------------------------------------------------|
b-----------10-13-------------10----------------10-10br-------------------|
g-12--10-12---------12--10-12----10---12--10-12---------10-10-------------|
d-------------------------------------------------------------10-10/12-12-|
a-------------------------------------------------------------------------|
d-------------------------------------------------------------------------|

e-------------------------------------------------------------------|
b-------------------------------------------------------------------|
g---------------------------------------------------10-10-9-9-------|
d----10h12-12-----10-10h12-10-----10-10h12-12-10-12-----------12-12-|
a-12-----------12--------------12-----------------------------------|
d-------------------------------------------------------------------|

e--------------------------------------------------------------------------|
b-----------10-13-------------10----------------10-10br---10br--13br-13br--|
g-12--10-12---------12--10-12----10---12--10-12-----------12br--15br-13br--|
d--------------------------------------------------------------------------|
a--------------------------------------------------------------------------|
d--------------------------------------------------------------------------|

Rhythm
e------------------------------------------------------------------------------|
b------------------------------------------------------------------------------|
g--------------------------------------------------------------------7-77------|
d-777777777777777777777777-1010101010101010-333333333333333333333333-7-77-5-55-|
a-777777777777777777777777-1010101010101010-333333333333333333333333-5-55-5-55-|
d-777777777777777777777777-1010101010101010-333333333333333333333333------5-55-|

Post-Solo Verse
Lead
e-------------------------------------------------------------------|
b-------------------------------------------------------------------|
g---------------------------------------------------10-10-9-9-------|
d----10h12-12-----10-10h12-10-----10-10h12-12-10-12-----------12-12-|
a-12-----------12--------------12-----------------------------------|
d-------------------------------------------------------------------|

e-------------------------------------------------------------|
b-----------10-10-------------10----------------10-10br-------|
g-12--10-12---------12--10-12----10---12--10-12----------10br-|
d-------------------------------------------------------------|
a-------------------------------------------------------------|
d-------------------------------------------------------------|


e-------------------------------------------------------------------|
b-------------------------------------------------------------------|
g---------------------------------------------------10-10-9-9-------|
d----10h12-12-----10-10h12-10-----10-10h12-12-10-12-----------12-12-|
a-12-----------12--------------12-----------------------------------|
d-------------------------------------------------------------------|

e--------------------------------------------------------------------------|
b-----------10-13-------------10----------------10-10br---10br--13br-13br--|
g-12--10-12---------12--10-12----10---12--10-12-----------12br--15br-13br--|
d--------------------------------------------------------------------------|
a--------------------------------------------------------------------------|
d--------------------------------------------------------------------------|

Rhythm
e------------------------------------------------------------------------------|
b------------------------------------------------------------------------------|
g--------------------------------------------------------------------7-77------|
d-777777777777777777777777-1010101010101010-333333333333333333333333-7-77-5-55-|
a-777777777777777777777777-1010101010101010-333333333333333333333333-5-55-5-55-|
d-777777777777777777777777-1010101010101010-333333333333333333333333------5-55-|

The rest is pretty straightforward.  Party on, Garth!
Добавлено: 25.11.2013
Другие материалы по этой песне:
  • Аккорды и текст

Страница создана 25.11.2013
http://primanota.ru/silversun-pickups/broken-bottles-chords.htm
Привет, Гость.
Предлагаем пройти революционный курс по гитаре.
Подарок от PrimaNota.Ru, забирай!