PrimaNota.ru - самый крупный в мире бесплатный архив песенных текстов, аккордов, табулатур и нот


Silverstein - Runaway - таба, видео

Регистрация Запомнить меня
Войти через:  Facebook Google Twitter Vk Yandex Mail.ru

Silverstein - Runaway - таба, видео

Печатать
Просмотров: 148
Авторы: Kanye West, Terrence Thornton, Mike Dean, Jeff Bhasker, Emile Haynie, J. Branch, Malik Jones

-------------------------------------------------------------------------------
                             Runaway - Silverstein
-------------------------------------------------------------------------------
Tabbed by: Boosted928
Email: egb928@yahoo.com
This is my first tab so I tried my best. It's meant to be played in Drop C# but I didn't 
feel like tuning up. Just move everything one down or play it as it's tabbed.

Tuning: Drop C

Intro:

D|--14(x15)--------13(x3)------11(x3)------7(x2)---6-------------------------|
A|---------------------------------------------------------------------------|
F|-----------11------------10-----------8------------------------------------|
C|---------------------------------------------------------------------------|
G|---------------------------------------------------------------------------|
C|---------------------------------------------------------------------------|

D|--14(x4)--------13(x3)-------11(x3)------7(x2)---6-------------------------|
A|---------------------------------------------------------------------------|
F|-----------11------------10-----------8------------------------------------|
C|---------------------------------------------------------------------------|
G|---------------------------------------------------------------------------|
C|---------------------------------------------------------------------------|

D|---------------------------------------------------------------------------|
A|---------------------------------------------------------------------------|
F|---------------------------------------------------------------------------|
C|----4---------3---------1---------4---------3------------------------------|
G|----4-(x16)---3-(x16)---1-(x16)---4-(x16)---3-(x8)-------------------------|
C|----4---------3---------1---------2---------1------------------------------|

This part repeats through most of the song under the rhythm:
D|--14(x4)--------13(x3)-------11(x3)------7(x2)---6-------------------------|
A|---------------------------------------------------------------------------|
F|-----------11------------10-----------8------------------------------------|
C|---------------------------------------------------------------------------|
G|---------------------------------------------------------------------------|
C|---------------------------------------------------------------------------|

Verse:
D|---------------------------------------------------------------------------|
A|---------------------------------------------------------------------------|
F|---------------------------------------------------------------------------|
C|----4~--------3~---------1~---------4~------------------4-4-4-4------------|
G|----4~--------3~---------1~---------4~------------------4-4-4-4------------|
C|----4~--------3~---------1~---------2~------------------4-4-4-4------------|
                                                          * * * *
Chorus:

D|---------------------------------------------------------------------------|
A|---------------------------------------------------------------------------|
F|---------------------------------------------------------------------------|
C|----4---------3---------1---------4---------4~-----------------------------|
G|----4-(x16)---3-(x16)---1-(x16)---4-(x16)---4~-----------------------------|
C|----4---------3---------1---------2---------2~-----------------------------|

Verse 2:
(The muted notes after the chords are hard to hear so I took my best guess.)

D|---------------------------------------------------------------------------|
A|---------------------------------------------------------------------------|
F|---------------------------------------------------------------------------|
C|----4~---4----------------3~---4-------------1~--------------4~------------|
G|----4~------4--2----------3~------4--2--1----1~-------1--2---4~---4--------|
C|----4~--------------------3~-----------------1~----4---------2~------------|
      *    *  *  *  *       *    *  *  *  *    *     *  *  *   *    *


D|---------------------------------------------------------------------------|
A|---------------------------------------------------------------------------|
F|---------------------------------------------------------------------------|
C|----4~--------3~---------1~---------4~------------------4-4-4-4------------|
G|----4~--------3~---------1~---------4~------------------4-4-4-4------------|
C|----4~--------3~---------1~---------2~------------------4-4-4-4------------|
                                                          * * * *

Chorus 2:

D|---------------------------------------------------------------------------|
A|---------------------------------------------------------------------------|
F|---------------------------------------------------------------------------|
C|----4---------3---------1---------4---------3------------------------------| (x2)
G|----4-(x16)---3-(x16)---1-(x16)---4-(x16)---3-(x8)-------------------------|
C|----4---------3---------1---------2---------1------------------------------|



Chorus 2 Lead:

D|---------------------------------------------------------------------------|
A|---------------------------------------------------------------------------|
F|---------------------------3--1----------------1---------------------------|
C|----4----------------4--------------------4-------1----------1/4-----------|
G|------------------4-----4---------------4---4------------------------------|
C|---------------------------------------------------------------------------|

Bridge:

D|---------------------------------------------------------------------------|
A|---------------------------------------------------------------------------|
F|---------------------------------------------------------------------------|
C|----4~---4----------------3~---4-------------1~--------------4~------------|
G|----4~------4--2----------3~------4--2--1----1~-------1--2---4~---4--------|
C|----4~--------------------3~-----------------1~----4---------2~------------|
      *    *  *  *  *       *    *  *  *  *    *     *  *  *   *    *


D|---------------------------------------------------------------------------|
A|---------------------------------------------------------------------------|
F|---------------------------------------------------------------------------|
C|----4~--------------------3~-----------------1~-------------4~-------------|
G|----4~--------------------3~-----------------1~-------------4~-------------|
C|----4~--------------------3~-----------------1~-------------2~-------------|
      *                *    *             *    *          *   *          *

Last part of the bridge has the same lead as Chorus 2 Lead:

D|---------------------------------------------------------------------------|
A|---------------------------------------------------------------------------|
F|---------------------------3--1----------------1---------------------------|
C|----4----------------4--------------------4-------1----------1/4------4----|
G|------------------4-----4---------------4---4------------------------------|
C|---------------------------------------------------------------------------|

Play this clean:

D|---------------------------------------------------------------------------|
A|---------------------------------------------------------------------------|
F|---------------------------------------------------------------------------|
C|----4---------3---------1---------4---------3------------------------------| (x2)
G|----4-(x16)---3-(x16)---1-(x16)---4-(x16)---3-(x8)-------------------------|
C|----4---------3---------1---------2---------1------------------------------|

D|---------------------------------------------------------------------------|
A|---------------------------------------------------------------------------|
F|---------------------------------------------------------------------------|
C|----4~--------3~---------1~---------4~------------------4-4-4-4------------|
G|----4~--------3~---------1~---------4~------------------4-4-4-4------------|
C|----4~--------3~---------1~---------2~------------------4-4-4-4------------|
                                                          * * * *

Chorus 2:

D|---------------------------------------------------------------------------|
A|---------------------------------------------------------------------------|
F|---------------------------------------------------------------------------|
C|----4---------3---------1---------4---------3------------------------------| (x2)
G|----4-(x16)---3-(x16)---1-(x16)---4-(x16)---3-(x8)-------------------------|
C|----4---------3---------1---------2---------1------------------------------|

Chorus 2 Lead:

D|---------------------------------------------------------------------------|
A|---------------------------------------------------------------------------|
F|---------------------------3--1----------------1---------------------------|
C|----4----------------4--------------------4-------1----------1/4------4----|
G|------------------4-----4---------------4---4------------------------------|
C|---------------------------------------------------------------------------|

The single notes keep repeating and this synth vocal part plays. (I'll try the best I can)

D|---------------------------------------------------------------------------|
A|-------------------------------------------2-------------------------------|
F|-------------------4----4---------4p3----3---3--4p3--1h3p1-----------------|
C|--1h3h4--------3h4--------4------------------------------------------------|
G|---------------------------------------------------------------------------|
C|---------------------------------------------------------------------------|

D|---------------------------------------------------------------------------|
A|-----------------------------------------2---------------------------------|
F|---1-----1-----1---1-----1-------------3---3--1----1--1---1---------1---3--|
C|------4-----4----4---4-------4p1-----------------4---4--4-----3--4---------|
G|---------------------------------------------------------------------------|
C|---------------------------------------------------------------------------|

D|---------------------------------------------------------------------------|
A|---2p0----2----------------------------------------------------------------|
F|--------3---3---1-----1----1-----------------------------------------------|
C|-------------------4-----4----4--1-----------------------------------------|
G|---------------------------------------------------------------------------|
C|---------------------------------------------------------------------------|





It was a valiant effort for one day of tabbing. I'll finish it later.



These four chords keep repeating during the synth vocal part. They start of palm muted 
and end up un-palm muted. Listen for how they are played each time

D|---------------------------------------------------------------------------|
A|---------------------------------------------------------------------------|
F|---------------------------------------------------------------------------|
C|----4~--------3~---------1~---------4~-------------------------------------|
G|----4~--------3~---------1~---------4~-------------------------------------|
C|----4~--------3~---------1~---------2~-------------------------------------|








************************************


************************************

| /   slide up
| \   slide down
| h   hammer-on
| p   pull-off
| ~   let note ring
| v   vibrato
| +   harmonic
| x   Mute note
| b   Bend
| pb  Pre-bend
| br  Bend release
| pbr Pre-bend release
| brb Bend release bend

************************************
Добавлено: 01.06.2012
Другие материалы по этой песне:
  • Аккорды и текст

Страница создана 01.06.2012
http://primanota.ru/silverstein/runaway-chords.htm
Привет, Гость.
Предлагаем пройти революционный курс по гитаре.
Подарок от PrimaNota.Ru, забирай!