PrimaNota.ru - самый крупный в мире бесплатный архив песенных текстов, аккордов, табулатур и нот


Silverstein - Kill The Lights - таба, видео

Регистрация Запомнить меня
Войти через:  Facebook Google Twitter Vk Yandex Mail.ru

Silverstein - Kill The Lights - таба, видео

Печатать
Просмотров: 64
Tabbed by: Joshua Garcia (joshuag523@aol.com)

Tabs for the song: Kill The Lights by Silverstein
Please rate and let me know if you have any corrections. Thank you.


Tuning: Drop C# (C# G# C# F# A# D#)


Intro
Guitar 1/2:
D#||-----------------------------------|-------------------------------|
A#||-----------------------------------|-------------------------------|
F#||--7-7-7-7--------7-7-7-7-----------|-------------------------------|
C#||--x-x-x-x----0---x-x-x-x----0-2-0--|--4-4-4-4----2---4-4-4-4----2--| x2
G#||--5-5-5-5----0---5-5-5-5----0-2-0--|--4-4-4-4----2---4-4-4-4----2--|
C#||-------------0--------------0-2-0--|--4-4-4-4----2---4-4-4-4----2--|



Verse
Guitar 1/2:
D#||----------------------------------------------------------------|
A#||----------------------------------------------------------------|
F#||----------6--7-----------7--6-----------------------------------|
C#||----------7--7-----------7--7-----------11--12-----------11--9--| x2
G#||--000-0-0--------000-0-0--------999-9-9-9---9----777-7-7-7---7--|
C#||--000-0-0--------000-0-0--------999-9-9----------777-7-7--------|
      ... . .        ... . .        ... . .          ... . .



Pre-Chorus
Guitar 1/2:
D#||----------------------------------|
A#||----------------------------------|
F#||----------------------------------|
C#||----7~----7~----7~----7~----7777--|
G#||----5~----5~----5~----5~----5555--|
C#||--555~----5~----5~----5~----5555--|
      ..



Chorus
Guitar 1:
D#||---------------------------------------------------------------|
A#||---------------------------------------------------------------|
F#||--7--7--777-14--1414--14141414-7--7--777-14--141414-1212-1111--|
C#||--x--x--xxx-x---x-x---x-x-x-x--x--x--xxx-x---x-x-x--x-x--x-x---|
G#||--5--5--555-12--1212--12121212-5--5--555-12--121212-1010-9-9---|
C#||---------------------------------------------------------------|


D#||-----------------------------------------------------------------------|
A#||-----------------------------------------------------------------------|
F#||--7--7--777-12---121212-1414-1111--18--18--181818-19--191919-18181818--|
C#||--x--x--xxx-x----x-x-x--x-x--x-x---x---x---x-x-x--x---x-x-x--x-x-x-x---|
G#||--5--5--555-10---101010-1212-9-9---16--16--161616-17--171717-16161616--|
C#||-----------------------------------------------------------------------|


Guitar 2:
D#||------------------------------------------------------------------------------------------|
A#||------------------------------------------------------------------------------------------|
F#||------------------------------------------------------------------------------------------|
C#||--9--9--9999--99--9999--5--5--5555--55--5555--4--4--4444--44--4444--7--7--7777--77--7777--|
G#||--9--9--9999--99--9999--5--5--5555--55--5555--5--5--5555--55--5555--7--7--7777--77--7777--|
C#||--9--9--9999--99--9999--5--5--5555--55--5555--4--4--4444--44--4444--7--7--7777--77--7777--|



Guitar 1:
D#||-----------------------------------------------------------------|
A#||-----------------------------------------------------------------|
F#||--7--7--777-14--141414-1212-1111-7--7--777-14--141414-1212-1111--|
C#||--x--x--xxx-x---x-x-x--x-x--x-x--x--x--xxx-x---x-x-x--x-x--x-x---|
G#||--5--5--555-12--121212-1010-9-9--5--5--555-12--121212-1010-9-9---|
C#||-----------------------------------------------------------------|


D#||-------------------------------------------------------------------------------|
A#||-------------------------------------------------------------------------------|
F#||--6-6-6-6-6-6-6-6-9-9-9-9-11-11-11-11-6-6-6-6-6-6-6-6-16-16-16-16-14-14-14-14--|
C#||--x-x-x-x-x-x-x-x-x-x-x-x-x--x--x--x--x-x-x-x-x-x-x-x-x--x--x--x--x--x--x--x---|
G#||--4-4-4-4-4-4-4-4-7-7-7-7-9--9--9--9--4-4-4-4-4-4-4-4-14-14-14-14-12-12-12-12--|
C#||-------------------------------------------------------------------------------|


Guitar 2:
D#||------------------------------------------------------------------------------------------|
A#||------------------------------------------------------------------------------------------|
F#||------------------------------------------------------------------------------------------|
C#||--9--9--9999--99--9999--0--0--0000--00--0000--4--4--4444--44--4444--2--2--2222--22--2222--|
G#||--9--9--9999--99--9999--0--0--0000--00--0000--4--4--4444--44--4444--2--2--2222--22--2222--|
C#||--9--9--9999--99--9999--0--0--0000--00--0000--4--4--4444--44--4444--2--2--2222--22--2222--|



Verse
Guitar 1/2:
D#||----------------------------------------------------------------|
A#||----------------------------------------------------------------|
F#||----------6--7-----------7--6-----------------------------------|
C#||----------7--7-----------7--7-----------11--12-----------11--9--| x4
G#||--000-0-0--------000-0-0--------999-9-9-9---9----777-7-7-7---7--|
C#||--000-0-0--------000-0-0--------999-9-9----------777-7-7--------|
      ... . .        ... . .        ... . .          ... . .



Pre-Chorus
Guitar 1/2:
D#||----------------------------------|
A#||----------------------------------|
F#||----------------------------------|
C#||----7~----7~----7~----7~----7777--|
G#||----5~----5~----5~----5~----5555--|
C#||--555~----5~----5~----5~----5555--|
      ..



Chorus
Guitar 1:
D#||---------------------------------------------------------------|
A#||---------------------------------------------------------------|
F#||--7--7--777-14--1414--14141414-7--7--777-14--141414-1212-1111--|
C#||--x--x--xxx-x---x-x---x-x-x-x--x--x--xxx-x---x-x-x--x-x--x-x---|
G#||--5--5--555-12--1212--12121212-5--5--555-12--121212-1010-9-9---|
C#||---------------------------------------------------------------|


D#||-----------------------------------------------------------------------|
A#||-----------------------------------------------------------------------|
F#||--7--7--777-12---121212-1414-1111--18--18--181818-19--191919-18181818--|
C#||--x--x--xxx-x----x-x-x--x-x--x-x---x---x---x-x-x--x---x-x-x--x-x-x-x---|
G#||--5--5--555-10---101010-1212-9-9---16--16--161616-17--171717-16161616--|
C#||-----------------------------------------------------------------------|


Guitar 2:
D#||------------------------------------------------------------------------------------------|
A#||------------------------------------------------------------------------------------------|
F#||------------------------------------------------------------------------------------------|
C#||--9--9--9999--99--9999--5--5--5555--55--5555--4--4--4444--44--4444--7--7--7777--77--7777--|
G#||--9--9--9999--99--9999--5--5--5555--55--5555--5--5--5555--55--5555--7--7--7777--77--7777--|
C#||--9--9--9999--99--9999--5--5--5555--55--5555--4--4--4444--44--4444--7--7--7777--77--7777--|



Guitar 1:
D#||-----------------------------------------------------------------|
A#||-----------------------------------------------------------------|
F#||--7--7--777-14--141414-1212-1111-7--7--777-14--141414-1212-1111--|
C#||--x--x--xxx-x---x-x-x--x-x--x-x--x--x--xxx-x---x-x-x--x-x--x-x---|
G#||--5--5--555-12--121212-1010-9-9--5--5--555-12--121212-1010-9-9---|
C#||-----------------------------------------------------------------|


D#||-------------------------------------------------------------------------------|
A#||-------------------------------------------------------------------------------|
F#||--6-6-6-6-6-6-6-6-9-9-9-9-11-11-11-11-6-6-6-6-6-6-6-6-16-16-16-16-14-14-14-14--|
C#||--x-x-x-x-x-x-x-x-x-x-x-x-x--x--x--x--x-x-x-x-x-x-x-x-x--x--x--x--x--x--x--x---|
G#||--4-4-4-4-4-4-4-4-7-7-7-7-9--9--9--9--4-4-4-4-4-4-4-4-14-14-14-14-12-12-12-12--|
C#||-------------------------------------------------------------------------------|


Guitar 2:
D#||------------------------------------------------------------------------------------------|
A#||------------------------------------------------------------------------------------------|
F#||------------------------------------------------------------------------------------------|
C#||--9--9--9999--99--9999--0--0--0000--00--0000--4--4--4444--44--4444--2--2--2222--22--2222--|
G#||--9--9--9999--99--9999--0--0--0000--00--0000--4--4--4444--44--4444--2--2--2222--22--2222--|
C#||--9--9--9999--99--9999--0--0--0000--00--0000--4--4--4444--44--4444--2--2--2222--22--2222--|



Breakdown
Guitar 1/2:
D#||---------------------------------------------------------------|
A#||---------------------------------------------------------------|
F#||---------------------------------------------------------------|
C#||--------------------------------------------------7---6--------|
G#||--0-0-0----0---0---0-9---7---5h7-4-4-4----4--4--4---------7h9--|
C#||--0-0-0----0---0---0---0---0-----4-4-4----4--4--4---0---0------|
      . . .    .   .   .   .   .     . . .    .  .  .   .   .


D#||-----------------------------------------------------------------|
A#||-----------------------------------------------------------------|
F#||-----------------------------------------------------------------|
C#||----------------------------------------------2~--2-x-2~--2-2-4--|
G#||--0-0-0----0---0---0-9---7---5h7-4-4-4----4-0-2~--2-x-2~--2-2-4--|
C#||--0-0-0----0---0---0---0---0-----4-4-4----4-0-2~--2-x-2~--2-2-4--|
      . . .    .   .   .   .   .     . . .    . .



Guitar 1:
D#||---------------------------------------------------------------|
A#||---------------------------------------------------------------|
F#||---------------------------------------------------------------|
C#||--------------------------------------------------7---6--------|
G#||--0-0-0----0---0---0-9---7---5h7-4-4-4----4--4--4---------7h9--|
C#||--0-0-0----0---0---0---0---0-----4-4-4----4--4--4---0---0------|
      . . .    .   .   .   .   .     . . .    .  .  .   .   .


D#||-----------------------------------------------------------------|
A#||-----------------------------------------------------------------|
F#||-----------------------------------------------------------------|
C#||----------------------------------------------2~--2-x-2~--2-2-4--|
G#||--0-0-0----0---0---0-9---7---5h7-4-4-4----4-0-2~--2-x-2~--2-2-4--|
C#||--0-0-0----0---0---0---0---0-----4-4-4----4-0-2~--2-x-2~--2-2-4--|
      . . .    .   .   .   .   .     . . .    . .


Guitar 2:
D#||---------------------------------------------------------------|
A#||---------------------------------------------------------------|
F#||--------------------------------------------------6---4--------|
C#||---------------------7---6---4h6--------------------------6h7--|
G#||--0-0-0----0---0---0-------------4-4-4----4--4--4--------------|
C#||--0-0-0----0---0---0---0---0-----4-4-4----4--4--4---0---0------|
      . . .    .   .   .   .   .     . . .    .  .  .   .   .


D#||-----------------------------------------------------------------|
A#||-----------------------------------------------------------------|
F#||-----------------------------------------------------------------|
C#||---------------------7---6---4h6--------------2~--2-x-2~--2-2-4--|
G#||--0-0-0----0---0---0-------------4-4-4----4-0-2~--2-x-2~--2-2-4--|
C#||--0-0-0----0---0---0---0---0-----4-4-4----4-0-2~--2-x-2~--2-2-4--|
      . . .    .   .   .   .   .     . . .    . .



Bridge
Guitar 1:
D#||--------------------------------------------------------------------------------|
A#||--------------------------------------------------------------------------------|
F#||--1111111111111111111111111111111-1414-12-14-16-14-12-141414-12-14-16-14-12-14--|
C#||--x-x-x-x-x-x-x-x-x-x-x-x-x-x-x-x-x-x--x--x--x--x--x--x-x-x--x--x--x--x--x--x---|
G#||--9-9-9-9-9-9-9-9-9-9-9-9-9-9-9-9-1212-10-12-14-12-10-121212-10-12-14-12-10-12--|
C#||--------------------------------------------------------------------------------|


D#||--------------------------------------------------------------------|
A#||--------------------------------------------------------------------|
F#||--111111111111111111-9999999-191919-181818-1616-141414-161616-1818--|
C#||--x-x-x-x-x-x-x-x-x--xxxxxxx-x-x-x--x-x-x--x-x--x-x-x--x-x-x--x-x---|
G#||--9-9-9-9-9-9-9-9-9--7777777-171717-161616-1414-121212-141414-1616--|
C#||--------------------------------------------------------------------|


D#||--------------------------------------------------------------------------------|
A#||--------------------------------------------------------------------------------|
F#||--1111111111111111111111111111111-1414-12-14-16-14-12-141414-12-14-16-14-12-14--|
C#||--x-x-x-x-x-x-x-x-x-x-x-x-x-x-x-x-x-x--x--x--x--x--x--x-x-x--x--x--x--x--x--x---|
G#||--9-9-9-9-9-9-9-9-9-9-9-9-9-9-9-9-1212-10-12-14-12-10-121212-10-12-14-12-10-12--|
C#||--------------------------------------------------------------------------------|


D#||------------------------------------------------------------------------|
A#||------------------------------------------------------------------------|
F#||--111111111111111111-9999999-191919-181818-1616-141414-161616-1818-19\--|
C#||--x-x-x-x-x-x-x-x-x--xxxxxxx-x-x-x--x-x-x--x-x--x-x-x--x-x-x--x-x--x-\--|
G#||--9-9-9-9-9-9-9-9-9--7777777-171717-161616-1414-121212-141414-1616-17\--|
C#||------------------------------------------------------------------------|


Guitar 2:
D#||--------------------------------------|---------------------------------------|
A#||--------------------------------------|---------------------------------------|
F#||--------------------------------------|---------------------------------------|
C#||--0000000000000000-444444444-7777777--|--0000000000000000-999999999-777777-9--|
G#||--0000000000000000-444444444-7777777--|--0000000000000000-999999999-777777-9--|
C#||--0000000000000000-444444444-7777777--|--0000000000000000-999999999-777777-9--|


D#||--------------------------------------|-----------------------------------------|
A#||--------------------------------------|-----------------------------------------|
F#||--------------------------------------|-----------------------------------------|
C#||--0000000000000000-444444444-7777777--|--0000000000000000-999999999-7777777-9\--|
G#||--0000000000000000-444444444-7777777--|--0000000000000000-999999999-7777777-9\--|
C#||--0000000000000000-444444444-7777777--|--0000000000000000-999999999-7777777-9\--|



Interlude
Guitar 1:
D#||-----------------------------------------------------------------|
A#||-----------------------------------------------------------------|
F#||---------------------7-7-7-7-6-6--------------------7-7-7-7-6-6--|
C#||----9----------------7-7-7-7-7-7---7----------------7-7-7-7-7-7--|
G#||----9--9-9-9-9-9-9-9---------------7--7-7-7-7-7-7-7--------------|
C#||--999--9-9-9-9-9-9-9-------------777--7-7-7-7-7-7-7--------------|
      ..   . . . . . . .             ..   . . . . . . .

D#||-----------------------------------------------------------------|
A#||-----------------------------------------------------------------|
F#||---------------------7-7-7-7-6-6--------------------7-7-7-7-9-9--|
C#||----5----------------7-7-7-7-7-7---5----------------7-7-7-7-7-7--|
G#||----5--5-5-5-5-5-5-5---------------5--5-5-5-5-5-5-5--------------|
C#||--555--5-5-5-5-5-5-5-------------555--5-5-5-5-5-5-5--------------|
      ..   . . . . . . .             ..   . . . . . . .



Guitar 1:
D#||------------------------------------------------------------------------------------|
A#||--------------------------------------------------------------------------5--7-/10--|
F#||-----------------------------------------------------------------4--6--7------------|
C#||--7---5---4--------7~--5~--7/9-7---5---4-5---4-----------4-5--7---------------------|
G#||------------5------------------------------------5----------------------------------|
C#||------------------------------------------------------------------------------------|


Guitar 2:
D#||-----------------------------------------------------------------|
A#||-----------------------------------------------------------------|
F#||---------------------7-7-7-7-6-6--------------------7-7-7-7-6-6--|
C#||----9----------------7-7-7-7-7-7---7----------------7-7-7-7-7-7--|
G#||----9--9-9-9-9-9-9-9---------------7--7-7-7-7-7-7-7--------------|
C#||--999--9-9-9-9-9-9-9-------------777--7-7-7-7-7-7-7--------------|
      ..   . . . . . . .             ..   . . . . . . .

D#||--------------------------------------------------------------------|
A#||--------------------------------------------------------------------|
F#||---------------------7-7-7-7-6-6-6----------------------------------|
C#||----5----------------7-7-7-7-7-7-7-5-5-5-5-5-5-5-5-5-5-5-5-5-5-5-5--|
G#||----5--5-5-5-5-5-5-5---------------5-5-5-5-5-5-5-5-5-5-5-5-5-5-5-5--|
C#||--555--5-5-5-5-5-5-5---------------5-5-5-5-5-5-5-5-5-5-5-5-5-5-5-5--|
      ..   . . . . . . .               . . . . . . . . . . . . . . . .



Chorus
Guitar 1:
D#||-------------------------------------------------------------|
A#||-------------------------------------------------------------|
F#||--7--7--777-14--1414--14141414-7--7--777-14--141414----------|
C#||--x--x--xxx-x---x-x---x-x-x-x--x--x--xxx-x---x-x-x--x-x-x-x--|
G#||--5--5--555-12--1212--12121212-5--5--555-12--121212-x-x-x-x--|
C#||----------------------------------------------------x-x-x-x--|


D#||-----------------------------------------------------------------------|
A#||-----------------------------------------------------------------------|
F#||--7--7--777-12---121212-1414-1111--18--18--181818-19--191919-18181818--|
C#||--x--x--xxx-x----x-x-x--x-x--x-x---x---x---x-x-x--x---x-x-x--x-x-x-x---|
G#||--5--5--555-10---101010-1212-9-9---16--16--161616-17--171717-16161616--|
C#||-----------------------------------------------------------------------|


Guitar 2:
D#||---------------------------------------------------------------------------------------------|
A#||---------------------------------------------------------------------------------------------|
F#||---------------------------------------------------------------------------------------------|
C#||--9--9--9999--99--9999--5--5--5555--555-x-x-x-x--4--4--4444--44--4444--7--7--7777--77--7777--|
G#||--9--9--9999--99--9999--5--5--5555--555-x-x-x-x--5--5--5555--55--5555--7--7--7777--77--7777--|
C#||--9--9--9999--99--9999--5--5--5555--555-x-x-x-x--4--4--4444--44--4444--7--7--7777--77--7777--|



Guitar 1:
D#||-----------------------------------------------------------------|
A#||-----------------------------------------------------------------|
F#||--7--7--777-14--141414-1212-1111-7--7--777-14--141414-1212-1111--|
C#||--x--x--xxx-x---x-x-x--x-x--x-x--x--x--xxx-x---x-x-x--x-x--x-x---|
G#||--5--5--555-12--121212-1010-9-9--5--5--555-12--121212-1010-9-9---|
C#||-----------------------------------------------------------------|


D#||-------------------------------------------------------------------------------|
A#||-------------------------------------------------------------------------------|
F#||--6-6-6-6-6-6-6-6-9-9-9-9-11-11-11-11-6-6-6-6-6-6-6-6-16-16-16-16-14-14-14-14--|
C#||--x-x-x-x-x-x-x-x-x-x-x-x-x--x--x--x--x-x-x-x-x-x-x-x-x--x--x--x--x--x--x--x---|
G#||--4-4-4-4-4-4-4-4-7-7-7-7-9--9--9--9--4-4-4-4-4-4-4-4-14-14-14-14-12-12-12-12--|
C#||-------------------------------------------------------------------------------|


Guitar 2:
D#||------------------------------------------------------------------------------------------|
A#||------------------------------------------------------------------------------------------|
F#||------------------------------------------------------------------------------------------|
C#||--9--9--9999--99--9999--0--0--0000--00--0000--4--4--4444--44--4444--2--2--2222--22--2222--|
G#||--9--9--9999--99--9999--0--0--0000--00--0000--4--4--4444--44--4444--2--2--2222--22--2222--|
C#||--9--9--9999--99--9999--0--0--0000--00--0000--4--4--4444--44--4444--2--2--2222--22--2222--|



Outro
Guitar 1/2:
D#||-----------------------------------|-------------------------------|
A#||-----------------------------------|-------------------------------|
F#||--7-7-7-7--------7-7-7-7-----------|-------------------------------|
C#||--x-x-x-x----0---x-x-x-x----0-2-0--|--4-4-4-4----2---4-4-4-4----2--| x2
G#||--5-5-5-5----0---5-5-5-5----0-2-0--|--4-4-4-4----2---4-4-4-4----2--|
C#||-------------0--------------0-2-0--|--4-4-4-4----2---4-4-4-4----2--|


Guitar 1:
D#||-----------------------------------|-------------------------------|
A#||-----------------------------------|-------------------------------|
F#||--7-7-7-7--------7-7-7-7-----------|-------------------------------|
C#||--x-x-x-x----0---x-x-x-x----0-2-0--|--4-4-4-4----2---4-4-4-4----2--| (Fade Out)
G#||--5-5-5-5----0---5-5-5-5----0-2-0--|--4-4-4-4----2---4-4-4-4----2--|
C#||-------------0--------------0-2-0--|--4-4-4-4----2---4-4-4-4----2--|


Guitar 2:
D#||-----------------------------------------|-----------------------------------|
A#||-----------------------------------------|-----------------------------------|
F#||--11111111----14---11111111----14-13-14--|--14141414----13---14141414----13--|
C#||--x-x-x-x-----x----x-x-x-x-----x--x--x---|--x-x-x-x-----x----x-x-x-x-----x---|
G#||--9-9-9-9-----12---9-9-9-9-----12-11-12--|--12121212----11---12121212----11--|
C#||-----------------------------------------|-----------------------------------|


D#||-----------------------------------------|-----------------------------------------|
A#||-----------------------------------------|-----------------------------------------|
F#||--11111111----14---11111111----14-13-14--|--14141414----13---14141414----16-14-13--|
C#||--x-x-x-x-----x----x-x-x-x-----x--x--x---|--x-x-x-x-----x----x-x-x-x-----x--x--x---| 
G#||--9-9-9-9-----12---9-9-9-9-----12-11-12--|--12121212----11---12121212----14-12-11--|
C#||-----------------------------------------|-----------------------------------------|




Tablature Legend
----------------
 h   - hammer-on
 p   - pull-off
 b   - bend
 r   - release bend
 *   - pinch harmonic
 '   - natural harmonic
 x   - mute note
 .   - palm mute
 /   - slide down
 \   - slide up
Добавлено: 25.02.2014
Другие материалы по этой песне:
  • Аккорды и текст

Страница создана 25.02.2014
http://primanota.ru/silverstein/kill-the-lights-chords.htm
Привет, Гость.
Предлагаем пройти революционный курс по гитаре.
Подарок от PrimaNota.Ru, забирай!